Oops, an error
Loading. Please wait.

Botas Nunca Mas tab

version 2
version 2

Whole song

by Flema
14 views 1 this week
no commentswrite comment
1 2 3 4 5
3 more votes to show rating
add to favorites
×
Save as Personal and add changes to this tab that will be seen only by you. Learn more ›
×
You can save this tab as Personal to edit and correct it or add notes. All changes will be seen only by you. Learn more »
launch autoscroll
font size
0
reset
how to read this tab
guitar tuner
edit
Autoscroll
slow
fast
+/-
esc
set tempo
stop
Aca les dejo la posta!!!
-Bueno gente perimero entra el bajo junto a la bata haciendo:

 LA-MIm-SOL-RE

-despues la viola con las mismas notas que las mantiene durante todo
el tema lo unico que cambia es el tiempo

-despues hace este punteado sobre la misma base inicial:
(el vibrato queda muy bien si lo hacemos bien suave)
   LA               MIm               SOL                RE
e------------------------------------------------------------
b------------------------------------------------------------
g--7v-5-7v-5-7v-5-7v-5-7v-5-7v-5-7v-5-7v-5-7v-5-7v-5-7v-5-7v-
D------------------------------------------------------------
A------------------------------------------------------------
E------------------------------------------------------------
   LA               MIm               SOL                RE
e--3v-0-3v-0-3v-0-3v-0-3v-0-3v-0-3v-0-3v-0-3v-0-3v-0-3v-0-3v-
b------------------------------------------------------------
g------------------------------------------------------------
D------------------------------------------------------------
A------------------------------------------------------------
E------------------------------------------------------------
      LA              MIm               SOL           RE
e-8-5-3-5v-3-0----8-5-3-5v-3-0----8-5-3-5v-3-0---8-5-3-5v-3-0
b------------------------------------------------------------
g------------------------------------------------------------
D------------------------------------------------------------
A------------------------------------------------------------
E------------------------------------------------------------
      LA         MIm             SOL              RE
e-10v-8-10v-----10v-8-10v------10v-8-10v----10-8-10-10v-8-10v
b------------------------------------------------------------
g------------------------------------------------------------
D------------------------------------------------------------
A------------------------------------------------------------
E------------------------------------------------------------

LA          MIm
Reventar o morir
SOL               RE
cùal es la meta a seguir?
LA                MIm
vida violenta en la calle
SOL                    RE
el que mas tiene es el que mas pierde
LA            MIm
en mi vida sin futuro
SOL            RE
no hay limites solo impuestos
LA             MIm
excesos de dia ,excesos de noche
SOL           RE
perversion y obsenidad

-parada...LA-MIm-Sol-RE X4

EN ARGENTINA!!!!
-aca el tiempo se acelera y mantiene las mismas notas
LA       MIm
gente podrida ,
SOL           RE
terror en las calles
LA         MIm
cordon policial
SOL          RE
piedras y botellas
LA          MIm
abuso de autoridad
SOL       RE
botas no NUNCA MAS
LA        MIm
botas no NUNCA MAS
SOL       RE
botas no NUNCA MAS
    LA     que da en LA junto al grito de ricky!
Rrrrraaagaaak

-repite punteado inicial

LA              MIm
Goce encasado, placer perverso,
SOL                 RE
sedismo prohibido, lujuria extrema
LA                 MIm
La ley condena a quien perdona
SOL                RE
Cadena perpetua, vida en las sombras
LA           MIm
Ruleta rusa es solo un juego
SOL             RE
maldita máquina de matar
LA                    MIm
La muerte me alcanza con su guadaña
SOL               RE
a quien le puede importar?

EN ARGENTINA!!!!

LA       MIm
gente podrida ,
SOL           RE
terror en las calles
LA         MIm
cordon policial
SOL          RE
piedras y botellas
LA          MIm
abuso de autoridad
SOL       RE
botas no NUNCA MAS
LA        MIm
botas no NUNCA MAS
SOL       RE
botas no NUNCA MAS
LA          MIm
Ohhhhhhh  ohhhhhhh  [coro]
SOL       RE
Ohhhhhh  en la Argentina
LA          MIm
Ohhhhhhh  ohhhhhhh  [coro]
SOL       RE
Ohhhhhh    gente podrida
LA          MIm
Ohhhhhhh  ohhhhhhh  [coro]
SOL       RE
Ohhhhhh   que mira y pega
LA          MIm
Ohhhhhhh  ohhhhhhh  [coro]
SOL       RE
Ohhhhhh   que viola y mata
LA
ahhhhh grito de Ricki.

Bueno gente espero que les alla gustado,lo hice
lo mas facil de entender posible...

aca les dejo me mail lucax_b612@
Cualquier duda sobre la discografia de
flema,flemita,sin ley y 2`(hasta el super8 jajaj re cabeza)
no duden es escribirme
chau gente

aguante el punk rock barrial!!!!!!!

Suggest correction
Creating personal tab
Creating personal tab
You can edit any tab online and save it as your Personal.

You can edit, replace or remove any tab part or add personal notes – all changes will be seen only by you.

Personal tabs can be accessed anytime from any device, even offline.
Learn more »
Give kudos to tab author, rate the tab!
1 2 3 4 5
comments
print report bad tab
guest
Wanna post a correction for this tab? Suggest correction