Oops, an error
Loading. Please wait.

Botas Nunca Mas tab

version 3
version 3

Whole song

by Flema
25 views 1 this week
no commentswrite comment
1 2 3 4 5
3 more votes to show rating
add to favorites
×
Save as Personal and add changes to this tab that will be seen only by you. Learn more ›
×
You can save this tab as Personal to edit and correct it or add notes. All changes will be seen only by you. Learn more »
launch autoscroll
font size
0
reset
how to read this tab
guitar tuner
edit
Autoscroll
slow
fast
+/-
esc
set tempo
stop
Intro: A E G D (siempre los mismos acordes)

e|-----------------------------------------------------------|
B|-----------------------------------------------------------|
G|-7-5--7-5--7-5--7-5--7-5--7-5--7-5--7-5--7-5--7-5--7-5--7-5|
D|-----------------------------------------------------------|
A|-----------------------------------------------------------|
E|-----------------------------------------------------------|

e|----------------------------------------------------------------------|
B|----------------------------------------------------------------------|
G|-12-9--12-9--12-9--12-9--12-9--12-9--12-9--12-9--12-9---12-9--12-9--12|
D|----------------------------------------------------------------------|
A|----------------------------------------------------------------------|
E|----------------------------------------------------------------------|

e|------------------------------------------------------|
B|-13----------------13-----------------13--------------|
G|----14-12-14-12-9-----14-12-14-12-9-----14-12-14-12-9-|
D|------------------------------------------------------|
A|------------------------------------------------------|
E|------------------------------------------------------|

B|-13-----------------------14-------14-------14------------14|
G|----14-12-14-12-9---15-13----15-13----15-13----15-13-15-13--|
D|------------------------------------------------------------|
A|------------------------------------------------------------|
E|------------------------------------------------------------|

Reventar o morir, cual es la meta a seguir
vida violenta en las calles
el que mas tiene es el que mas pierde
en mi vida sin futuro, no hay limites autoimpuestas
exceso de dia, exceso de noche
pervencion y obsenidad

Botas no, nunca mas (x3)

Intro

Gose encansado, placer perverso
sadismo prohibido, lujuria extrema
la ley condena a quien perdona
cadena perpetua, vida en las sombras
ruleta rusa es solo un juego
maldita maquina de matar
la muerte me alcansa kon su guadaña
a quien le puede importar

Boras no, nunca mas (x3)

            
            
Suggest correction
Creating personal tab
Creating personal tab
You can edit any tab online and save it as your Personal.

You can edit, replace or remove any tab part or add personal notes – all changes will be seen only by you.

Personal tabs can be accessed anytime from any device, even offline.
Learn more »
Give kudos to tab author, rate the tab!
1 2 3 4 5
comments
print report bad tab
guest
Wanna post a correction for this tab? Suggest correction