Oops, an error
Loading. Please wait.

La Manija tab

version 2
version 2

Whole song

by Flema
28 views 1 this week
no commentswrite comment
1 2 3 4 5
3 more votes to show rating
add to favorites
×
Save as Personal and add changes to this tab that will be seen only by you. Learn more ›
×
You can save this tab as Personal to edit and correct it or add notes. All changes will be seen only by you. Learn more »
launch autoscroll
font size
0
reset
how to read this tab
guitar tuner
edit
Autoscroll
slow
fast
+/-
esc
set tempo
stop
LA manija- Flema

E----------------------------------------
B----------------------------------------
G----------------------------------------     
D-------2--------------------------------       x 3
A---3-3---3-3----------------------------
E-3--------------------------------------

E----------------------------------------
B----------------------------------------
G----------------------------------------     
D----------------------------------------   Puente
A-3-2-0----------------------------------
E-------3--------------------------------

E----------------------------------------
B----------------------------------------
G----------------------------------------     
D----------------------------------------   x 3
A-------2--------------------------------
E-0-3-3--3-3-----------------------------

E----------------------------------------
B----------------------------------------
G----------------------------------------     
D-------2--------------------------------       x 1
A---3-3---3-3----------------------------
E-3--------------------------------------

Ese es el ritmo básico de la canción.

El tiempo se escapa, la manija crece
y el chabon del filo, que no aparece
no pinta en la esquina, no pinta en la plaza
la manija crece y el tiempo se escapa.

En una parte repite la estrofa pero con acordes.

G                     C
El tiempo se escapa, la manija crece
G                     C
y el chabon del filo, que no aparece
G                       C
no pinta en la esquina, no pinta en la plaza
G                       C
la manija crece y el tiempo se escapa.

              G            F               C
Al final : la manija crece y el tiempo se escapa.

            
            
Suggest correction
Creating personal tab
Creating personal tab
You can edit any tab online and save it as your Personal.

You can edit, replace or remove any tab part or add personal notes – all changes will be seen only by you.

Personal tabs can be accessed anytime from any device, even offline.
Learn more »
Give kudos to tab author, rate the tab!
1 2 3 4 5
comments
print report bad tab
guest
Wanna post a correction for this tab? Suggest correction