Oops, an error
Loading. Please wait.

Mandibuleas tab

version 1
version 1

Whole song

by Flema
13 views 1 this week
no commentswrite comment
1 2 3 4 5
3 more votes to show rating
add to favorites
×
Save as Personal and add changes to this tab that will be seen only by you. Learn more ›
×
You can save this tab as Personal to edit and correct it or add notes. All changes will be seen only by you. Learn more »
launch autoscroll
font size
0
reset
how to read this tab
guitar tuner
edit
Autoscroll
slow
fast
+/-
esc
set tempo
stop
1, 2, 3, VAAAAAAA!!!!!

Intro
   A5                                                          D5
e|------------------------------------------------------------------|
B|------------------------------------------------------------------|
G|-------------------------------------------------------------7-7--|
D|-----------7-7------------7-7------------7-7------------7-7--7-7--|
A|--------7--7-7---------7--7-7---------7--7-7---------7--7-7--5-5--|
E|--0-3-0-5--5-5---0-3-0-5--5-5---0-3-0-5--5-5---0-3-0-5--5-5-------|


Verso 1

   E5          A5                     D5    E5          A5
e|------------------------------------------------------------------------------------|
B|------------------------------------------------------------------------------------|
G|--9---------------------------------7-7---9-----------------------------------------|
D|--9-(x16)-------7-7------------7-7--7-7---9-(x16)--------7-7------------7-7---------|
A|--7----------7--7-7---------7--7-7--5-5---7-----------7--7-7---------7--7-7---------|
E|-------------5--5-5---0-3-0-5--5-5--------------------5--5-5---0-3-0-5--5-5--0-3-0--|
         Amanece...                            Mandibuleas...


   D5              A5                             D5             E5
e|-------------------------------------------------------------------------|
B|-------------------------------------------------------------------------|
G|--7----------------------------------------------7--------------9--------|
D|--7-(x16)------------7-7------------7-7----------7-(x16)--------9-(x16)--|
A|--5---------------7--7-7---------7--7-7----------5--------------7--------|
E|------------------5--5-5---0-3-0-5--5-5--0-3-0---------------------------|
     Sin poderte dormir...                        Sin dejar de pensar...


              A5                                                  D5
e|---------------------------------------------------------------------|
B|---------------------------------------------------------------------|
G|----------------------------------------------------------------7-7--|
D|----------------7-7------------7-7-----------7-7-----------7-7--7-7--|
A|-------------7--7-7---------7--7-7--------7--7-7--------7--7-7--5-5--|
E|-------------5--5-5---0-3-0-5--5-5--0-3-0-5--5-5--0-3-0-5--5-5-------|
  En un toque mas...


Verso 2
(Igual al primero)

No podes ver tu soledad,
Porque hay muchos mas
Que con vos pueden estar
Por un toque mas


Verso 3

   D5         A5                             D5           A5
e|---------------------------------------------------------------------------------------|
B|---------------------------------------------------------------------------------------|
G|--7-----------------------------------------7------------------------------------------|
D|--7-(x16)-------7-7------------7-7----------7-(x16)---------7-7------------7-7---------|
A|--5----------7--7-7---------7--7-7----------5------------7--7-7---------7--7-7---------|
E|-------------5--5-5---0-3-0-5--5-5---0-3-0---------------5--5-5---0-3-0-5--5-5--0-3-0--|
  Por un toque mas...                         Por un toque mas...


   E5     D5       A5                             E5     D5       A5
e|---------------------------------------------------------------------|
B|---------------------------------------------------------------------|
G|--9------7---------------------------------------9------7------------|
D|--9-(x8)-7-(x8)------7-7------------7-7----------9-(x8)-7-(x8)---7.--|
A|--7------5--------7--7-7---------7--7-7----------7------5--------7.--|
E|------------------5--5-5---0-3-0-5--5-5---0-3-0------------------5.--|
    Por un toque mas...                            Por un toque mas...


Parece un poco dificil de entender, pero si escuchas la cancion 
vas a ver q la sacas al toque.

anarkkky@

Aguante 3ro 5ta, q este año me llevo todo.
RICKY NO MURIO!!!

            
            
Suggest correction
Creating personal tab
Creating personal tab
You can edit any tab online and save it as your Personal.

You can edit, replace or remove any tab part or add personal notes – all changes will be seen only by you.

Personal tabs can be accessed anytime from any device, even offline.
Learn more »
Give kudos to tab author, rate the tab!
1 2 3 4 5
comments
print report bad tab
guest
Wanna post a correction for this tab? Suggest correction