Oops, an error
Loading. Please wait.

Me Echaron De Casa bass

version 2
version 2

Whole song

by Flema
30 views 1 this week
no commentswrite comment
1 2 3 4 5
3 more votes to show rating
add to favorites
×
Save as Personal and add changes to this tab that will be seen only by you. Learn more ›
×
You can save this tab as Personal to edit and correct it or add notes. All changes will be seen only by you. Learn more »
launch autoscroll
font size
0
reset
guitar tuner
edit
Autoscroll
slow
fast
+/-
esc
set tempo
stop
Dedicada a todo punketo ke lo hecharon de casa...

Intro: x2
g-------------------------------------------------
d-------------------------------------------------
a-------------------------------------------------
e--0-0-0-0--3-3-3-3--5-5-5-5--7-7-7-7-------------

verso: x4
g------------------------------------------------
d------------------------------------------------
a------------------------------------------------
e---0-0-0-0--3-3-3-3--5-5-5-5--7-7-7-7-----------

   Porque no trabajo  me echaron de casa
   Porque no estudio  me echaron de casa
  Porque duermo mucho  me echaron de casa
   Y nunca hago nada  me echaron de casa

coro: x4
g------------------------------------------------
d------------------------------------------------
a------------------------------------------------
e-------------5-5-3-3-5-5-3-3--------------------

Yo no pedi nacer!
Yo no pedi nacer!
Yo no pedi nacer!
Yo no pedi nacer!


verso: x4
g------------------------------------------------
d------------------------------------------------
a------------------------------------------------
e---0-0-0-0--3-3-3-3--5-5-5-5--7-7-7-7-----------

   Porque tomo mucho  me echaron de casa
 Y me gusta la calle  me echaron de casa
   Dicen que soy vago  me echaron de casa
  Me importa un carajo  me echaron de casa


coro: x4
g------------------------------------------------
d------------------------------------------------
a------------------------------------------------
e----------------5-5-3-3-5-5-3-3-----------------

Yo no pedi nacer!
Yo no pedi nacer!
Yo no pedi nacer!
Yo no pedi nacer!

verso: x4
g------------------------------------------------
d------------------------------------------------
a------------------------------------------------
e---0-0-0-0--3-3-3-3--5-5-5-5--7-7-7-7-----------

   Porque no me callo  me echaron de casa
  Y digo lo que siento  me echaron de casa
    Odio a la iglesia  me echaron de casa
    Vivo en anarquia  me echaron de casa


coro: x4
g------------------------------------------------
d------------------------------------------------
a------------------------------------------------
e--------5-5-3-3-5-5-3-3-------------------------

Yo no pedi nacer!
Yo no pedi nacer!
Yo no pedi nacer!
Yo no pedi naceeerr!

pre-coro2:
g------------------------------------------------
d------------------------------------------------
a------------------------------------------------
e---0-0-0-0--3-3-3-3--5-5-5-5-----7-7-7-7--------

g------------------------------------------------
d------------------------------------------------
a------------------------------------------------
e---0-0-0-0--3-3-3-3--5-5-5-5--7-7-7-7-----------

coro2: x4
g------------------------------------------------
d------------------------------------------------
a------------------------------------------------
e---0-0-0-0--3-3-3-3--5-5-5-5--7-7-7-7-----------

                      Me echaron de casa
                      me echaron de casa
                      me echaron de casa
                      me echaron de casa

coro: x4
g------------------------------------------------
d------------------------------------------------
a------------------------------------------------
e--------------5-5-3-3-5-5-3-3-------------------

Yo no pedi nacer!
Yo no pedi nacer!
Yo no pedi nacer!
Yo no pedi naceeerr  hia!

pre-coro2
g------------------------------------------------
d------------------------------------------------
a------------------------------------------------
e---0--------3--------5--------7-7-7-7-----------

coro2: x8
g------------------------------------------------
d------------------------------------------------
a------------------------------------------------
e---0-0-0-0--3-3-3-3--5-5-5-5--7-7-7-7-----------

                      Me echaron de casa
                      me echaron de casa
                      me echaron de casa
                      me echaron de casa!!!!


y eso es todo... pudrance hijos de mierda...
Flema vive y vivira en los corazones de todos...
Suggest correction
Creating personal tab
Creating personal tab
You can edit any tab online and save it as your Personal.

You can edit, replace or remove any tab part or add personal notes – all changes will be seen only by you.

Personal tabs can be accessed anytime from any device, even offline.
Learn more »
Give kudos to tab author, rate the tab!
1 2 3 4 5
comments
print report bad tab
guest
Wanna post a correction for this tab? Suggest correction