Oops, an error
Loading. Please wait.

Me Tengo Que Ir bass

version 1
version 1

Whole song

by Flema
54 views 1 this week
no commentswrite comment
1 2 3 4 5
3 more votes to show rating
add to favorites
×
Save as Personal and add changes to this tab that will be seen only by you. Learn more ›
×
You can save this tab as Personal to edit and correct it or add notes. All changes will be seen only by you. Learn more »
launch autoscroll
font size
0
reset
guitar tuner
edit
Autoscroll
slow
fast
+/-
esc
set tempo
stop
-* Me TeNgO qE iR *-


'Intro'  (x4)

G/------------------------------------------
D/------------------------------------------
A/-------------6-6-6-6-6-6-6----------------
E/-3-3-3-3-3-3------------------------------

Se qe no entenderás
mis palabras
Pero me voy, me voy
y aun te qiero

G/---------------------------------------------------------
D/---------------------------------------------------------
A/-/3-3-3-3-3-3---------------3-3-3-3-3-3-3----------------
E/--------------3-3-3-3-3-3-3-----------------3-3-3-3-3-3-3-

No te dejo x qe sí
Podés odiarme pero sé qe no lo harás

G/-------------------------------------------
D/-------------------------------------------
A/-2-2-2-2-2-2----/3-3-3-3-3-3---------------
E/-----------------------------3-3-3-3-3-3---

Nena no llores

G/-------------------------------------------
D/-------------------------------------------
A/-3-3-3--5-5-5-5-5--------------------------
E/-------------------------------------------

me tengo qe ir
bap shu wappppp
shu wap wap shuwapppp

G/------------------------------------------
D/------------------------------------------
A/-------------6-6-6-6-6-6-6----------------
E/-3-3-3-3-3-3------------------------------


HaDeS

     SIN > L3Y

            
            
Suggest correction
Creating personal tab
Creating personal tab
You can edit any tab online and save it as your Personal.

You can edit, replace or remove any tab part or add personal notes – all changes will be seen only by you.

Personal tabs can be accessed anytime from any device, even offline.
Learn more »
Give kudos to tab author, rate the tab!
1 2 3 4 5
comments
print report bad tab
guest
Wanna post a correction for this tab? Suggest correction