Oops, an error
Loading. Please wait.

Metamorfosis Adolescente bass

version 2
version 2

Whole song

by Flema
74 views 1 this week
no commentswrite comment
1 2 3 4 5
3 more votes to show rating
add to favorites
×
Save as Personal and add changes to this tab that will be seen only by you. Learn more ›
×
You can save this tab as Personal to edit and correct it or add notes. All changes will be seen only by you. Learn more »
launch autoscroll
font size
0
reset
guitar tuner
edit
Autoscroll
slow
fast
+/-
esc
set tempo
stop
Bueno esta es mi primer Tab de tantas que tengo, pues
aqui va mi rola favorita de Flema, Aqui esta el tab, 
se que es lo mismo todo, pero en el Primer Post coro 
hay una diferencia :

Intro: x4
G/-----------------------------------------------------
D/-----------------------------------------------------
A/-5-5-5-5-5-5---8-8-8-8-8-8--0-0-0-0-0-0--3-3-3-3-3-3-
E/-----------------------------------------------------

Verso: x4
G/-----------------------------------------------------
D/-----------------------------------------------------
A/-5-5-5-5-5-5---8-8-8-8-8-8--0-0-0-0-0-0--3-3-3-3-3-3-
E/-----------------------------------------------------

Verso:
      Ya no hay nada en mi,    Me obligaron a crecer
      MI imaginacion           Me obligaron a matar
      Ya no puedo ser,         Me obligaron a soñar
      MI infancia termino,     Me obligaron a mentir
 
Coro: x2
G/-----------------------------------------------------
D/-----------------------------------------------------
A/-5-5-5-5-5-5---8-8-8-8-8-8--0-0-0-0-0-0--3-3-3-3-3-3-
E/-----------------------------------------------------

       Te quiero, Te odio,       Nesesito tu calor
       Te quiero, Te odio,       Na raraaaaaaaa a


Post-Coro
G/-----------------------------------------------------
D/-----------------------------------------------------
A/-5-5-5-5-5-5---8-8-8-8-8-8--0-0-0-0-0-0--3-2-3-4-3-4-
E/-----------------------------------------------------

G/-----------------------------------------------------
D/-----------------------------------------------3---3-
A/-5-5-5-5-5-5---8-8-8-8-8-8--0-0-0-0-0-0--3-3-3---3---
E/-----------------------------------------------------

Verso 2: x2
G/-----------------------------------------------------
D/-----------------------------------------------------
A/-5-5-5-5-5-5---8-8-8-8-8-8--0-0-0-0-0-0--3-3-3-3-3-3-
E/-----------------------------------------------------

             NO me mires asi,   No voy a confiar en vos
           Yo no tengo futuro,  yo no quiero envejecer

Coro 2: x2
G/-----------------------------------------------------
D/-----------------------------------------------------
A/-5-5-5-5-5-5---8-8-8-8-8-8--0-0-0-0-0-0--3-3-3-3-3-3-
E/-----------------------------------------------------           
 
    Revolver      Suicidio   La sangre comienza a correr
  Revolver      Suicidio   La sangre comienza a correr


Post Coro 2:x2
G/-----------------------------------------------------
D/-----------------------------------------------------
A/-5-5-5-5-5-5---8-8-8-8-8-8--0-0-0-0-0-0--3-3-3-3-3-3-
E/-----------------------------------------------------           


Coro 2: x4
G/-----------------------------------------------------
D/-----------------------------------------------------
A/-5-5-5-5-5-5---8-8-8-8-8-8--0-0-0-0-0-0--3-3-3-3-3-3-
E/-----------------------------------------------------           
 
    Revolver      Suicidio   La sangre comienza a correr
  Revolver      Suicidio   La sangre comienza a correr
  Revolver    Suicidio         Revolver      Suicidio
  REVOLVER    REVOLVER         REVOLVER REVOL VER HIA

_______________________________________________________


Va dedicada a todo aquel que sabe que el punk no es 
solo musica y ropa de cuero y stoperoles, sino que es
una forma de vida...           CHango, o MONcKEY
e-mail: jaboandmonckey@

            
            
Suggest correction
Creating personal tab
Creating personal tab
You can edit any tab online and save it as your Personal.

You can edit, replace or remove any tab part or add personal notes – all changes will be seen only by you.

Personal tabs can be accessed anytime from any device, even offline.
Learn more »
Give kudos to tab author, rate the tab!
1 2 3 4 5
comments
print report bad tab
guest
Wanna post a correction for this tab? Suggest correction