Oops, an error
Loading. Please wait.

No Pasa Nada bass

version 2
version 2

Whole song

by Flema
13 views 1 this week
no commentswrite comment
1 2 3 4 5
3 more votes to show rating
add to favorites
×
Save as Personal and add changes to this tab that will be seen only by you. Learn more ›
×
You can save this tab as Personal to edit and correct it or add notes. All changes will be seen only by you. Learn more »
launch autoscroll
font size
0
reset
guitar tuner
edit
Autoscroll
slow
fast
+/-
esc
set tempo
stop
[estrofa 1]

|---3--5------------5--3--3-------------------|
|---------3--5--3-----------------------------|
|---------------------------------------------|
|---------------------------------------------|

Si tu cabeza esta loca

|---3--5------------5--5--5-------------------|
|---------3--5--3-----------------------------|
|---------------------------------------------|
|---------------------------------------------|

Y con pastillas no alcanza

|---3--5------------5-------------------------|
|---------3--5--3------3--3--3----------------|
|---------------------------------------------|
|---------------------------------------------|

Y no tenes mas receta

|---3--5------------5---3---------------------|
|---------3--5--3-----------------------------|
|---------------------------------------------|
|---------------------------------------------|

Para salir a comprar


[estrofa 2]


|---3--5------------5--3--3-------------------|
|---------3--5--3-----------------------------|
|---------------------------------------------|
|---------------------------------------------|

Y si tu boca esta seca

|---3--5------------5--5--5-------------------|
|---------3--5--3-----------------------------|
|---------------------------------------------|
|---------------------------------------------|

Y con las birras no alcansa

|---3--5------------5-------------------------|
|---------3--5--3------3--3--3----------------|
|---------------------------------------------|
|---------------------------------------------|

Y la gente qe te escracha

|---3--5------------5---3---------------------|
|---------3--5--3-----------------------------|
|---------------------------------------------|
|---------------------------------------------|

Cuando te ve vomitar


(estribillo)


|---3--5--------------------------------------|
|---------2--3--3--5--3--5--3-----------------|
|---------------------------------------------|
|---------------------------------------------|

No pasa nada

|---------5--3--------------------------------|
|---5--3--------3--5--3--5--3-----------------|
|---------------------------------------------|
|---------------------------------------------|

No hay problema

|---------5--5--------------------------------|
|---5--3--------3--5--3--5--3-----------------|
|---------------------------------------------|
|---------------------------------------------|

Esta condena

|---------5--3--------------------------------|
|---3--5--3-----------------------------------|
|---------------------------------------------|
|---------------------------------------------|

Nunca va a acabar


[estrofa 3]


|---3--5------------5--3--3-------------------|
|---------3--5--3-----------------------------|
|---------------------------------------------|
|---------------------------------------------|

Si trabajas siempre duro

|---3--5------------5--5--5-------------------|
|---------3--5--3-----------------------------|
|---------------------------------------------|
|---------------------------------------------|

Y la guita no te alcanza

|---3--5------------5-------------------------|
|---------3--5--3------3--3--3----------------|
|---------------------------------------------|
|---------------------------------------------|

Y te hace ruido la panza

|---3--5------------5---3---------------------|
|---------3--5--3-----------------------------|
|---------------------------------------------|
|---------------------------------------------|

Que se empiesa a agujerear


[estrofa 3]


|---3--5------------5--3--3-------------------|
|---------3--5--3-----------------------------|
|---------------------------------------------|
|---------------------------------------------|

Si la naris te moquea

|---3--5------------5--5--5-------------------|
|---------3--5--3-----------------------------|
|---------------------------------------------|
|---------------------------------------------|

Ni mil pañuelos te alcanzan

|---3--5------------5-------------------------|
|---------3--5--3------3--3--3----------------|
|---------------------------------------------|
|---------------------------------------------|

Quizas entonces mañana

|---3--5------------5---3---------------------|
|---------3--5--3-----------------------------|
|---------------------------------------------|
|---------------------------------------------|

puedas volver a empesar


(estribillo)


|---3--5--------------------------------------|
|---------2--3--3--5--3--5--3-----------------|
|---------------------------------------------|
|---------------------------------------------|

No pasa nada

|---------5--3--------------------------------|
|---5--3--------3--5--3--5--3-----------------|
|---------------------------------------------|
|---------------------------------------------|

No hay problema

|---------5--5--------------------------------|
|---5--3--------3--5--3--5--3-----------------|
|---------------------------------------------|
|---------------------------------------------|

Esta condena

|---------5--3--------------------------------|
|---3--5--3-----------------------------------|
|---------------------------------------------|
|---------------------------------------------|

Nunca va a acabar


aguante flema y el punk rock!
esta cancion se la dedico a mi hermano lucas que siempre esta preocuádo jaj
nos vemos
Suggest correction
Creating personal tab
Creating personal tab
You can edit any tab online and save it as your Personal.

You can edit, replace or remove any tab part or add personal notes – all changes will be seen only by you.

Personal tabs can be accessed anytime from any device, even offline.
Learn more »
Give kudos to tab author, rate the tab!
1 2 3 4 5
comments
print report bad tab
guest
Wanna post a correction for this tab? Suggest correction