Oops, an error
Loading. Please wait.

Nunca Sere Policia tab

version 1
version 1

Whole song

Interactive

by Flema
2,500 views 1 this week
no commentswrite comment
1 2 3 4 5
1 last vote to show rating
add to favorites
×
Save as Personal and add changes to this tab that will be seen only by you. Learn more ›
×
You can save this tab as Personal to edit and correct it or add notes. All changes will be seen only by you. Learn more »
launch autoscroll
font size
0
reset
how to read this tab
guitar tuner
edit
Autoscroll
slow
fast
+/-
esc
set tempo
stop
Esta es la tablatura de nunca sere policia de flema es 100% correcta espero
q les sirva. Para comentarios puteadas escriban a mi correo
unmasked80@hotmail.com
y tambien escriban por si quieren tablaturas de otras bandas


 Hoy me encuentro solo sentado en un rincon

E--------------------------------------------|
B--------------------------------------------|
G----------------------------7-7-7-7-7-7-7-7-|
D--5-5-5-5-5-5-5-5-5-5-5-5-5-7-7-7-7-7-7-7-7-|
A--5-5-5-5-5-5-5-5-5-5-5-5-5-5-5-5-5-5-5-5-5-|
E--3-3-3-3-3-3-3-3-3-3-3-3-3-----------------|

 pensando en muchas cosas buscando una razon

E-------------------------------------------------|
B-------------------------------------------------|
G-7-7-7-5-5-5-5-5-5-5-5-5-5---------------7-7-7-7-|
D-7-7-7-5-5-5-5-5-5-5-5-5-5-5-5-5-5-5-5-5-7-7-7-7-|
A-5-5-5-3-3-3-3-3-3-3-3-3-3-5-5-5-5-5-5-5-5-5-5-5-|
E---------------------------3-3-3-3-3-3-3---------|

Despues es el coro q va hasta q termina la canción:
 nunca sere policia de provincia ni de capital

E------------------------------------------------|
B------------------------------------------------|
G-------------5-5-------5-5--------7-7-7-7-------|
D-5-5-5-5-5-5-5-5-5-5-5-5-5-5-5-5--7-7-7-7-5-5-5-|
A-5-5-5-5-5-5-3-3-5-5-5-3-3-5-5-5--5-5-5-5-5-5-5-|
E-3-3-3-3-3-3-----3-3-3-----3-3-3----------3-3-3-|

Arriba Flema y arriba el PUNK Carajo Punk´s Never Dead
Suggest correction
Creating personal tab
Creating personal tab
You can edit any tab online and save it as your Personal.

You can edit, replace or remove any tab part or add personal notes – all changes will be seen only by you.

Personal tabs can be accessed anytime from any device, even offline.
Learn more »
Give kudos to tab author, rate the tab!
1 2 3 4 5
comments
print report bad tab
guest
Wanna post a correction for this tab? Suggest correction