Oops, an error
Loading. Please wait.

Salve Cuba tab

version 2
version 2

Whole song

by Flema
19 views 1 this week
no commentswrite comment
1 2 3 4 5
3 more votes to show rating
add to favorites
×
Save as Personal and add changes to this tab that will be seen only by you. Learn more ›
×
You can save this tab as Personal to edit and correct it or add notes. All changes will be seen only by you. Learn more »
launch autoscroll
font size
0
reset
how to read this tab
guitar tuner
edit
Autoscroll
slow
fast
+/-
esc
set tempo
stop
intro: G C D x muchas veces

intro punteado (entra desues del primer G)


e-10----------------------10------10-----------
b-----8-8--8--10-10--8-------8-8-----8-8---8---
g----------------------------------------------
D----------------------------------------------
A----------------------------------------------
E----------------------------------------------

e-10---10-10-10-10-10-10----10---10-----10---10---
b-8----8--8--8--8--8--8--------8----8------8------
g------------------------------------------------9
D----------------------------------------------
A----------------------------------------------
E----------------------------------------------

e-10---10---10---10--------10---10-------------
b----8--------8-----8---------8----------------
g---------9------------------------9-----------
D----------------------------------------------
A----------------------------------------------
E----------------------------------------------

e-10---10---10---10-------12-12--10-10--8-10-10
b----8---------8----8--------------------------
g---------9------------------------------------
D----------------------------------------------
A----------------------------------------------
E----------------------------------------------

e-12-12--10-10--8-10-10--12-12--10-10--8-10-10-
b----------------------------------------------
g----------------------------------------------
D----------------------------------------------
A----------------------------------------------
E----------------------------------------------

e-12-12--10-10--8-10-10--12-12--10-10--8-10-10-
b----------------------------------------------
g----------------------------------------------
D----------------------------------------------
A----------------------------------------------
E----------------------------------------------

e-12-12--10-10--8-10-10--12-12--10-10--8-10-10-
b----------------------------------------------
g----------------------------------------------
D----------------------------------------------
A----------------------------------------------
E----------------------------------------------

e-12-12--10-10-8--14-15-14-14-12-12-14-14-15---
b----------------------------------------------
g----------------------------------------------
D----------------------------------------------
A----------------------------------------------
E----------------------------------------------

2ºpunteo:
e-10---10----10---10---10----10----10---10-----
b----8----8-----8---------8-----------8----8---
g--------------------9----------9--------------
D----------------------------------------------
A----------------------------------------------
E----------------------------------------------

e-10---10----10---10---10---10-----------------
b----8----8-----8---------8--------------------
g--------------------9-------------------------
D----------------------------------------------
A----------------------------------------------
E----------------------------------------------

e-15-15-14-14-12-12-14-14-15-------------------
b----------------------------------------------
g----------------------------------------------
D----------------------------------------------
A----------------------------------------------
E----------------------------------------------
3ºpunteo:
e-----10-10-----10------10-10-----10---10-10-----10
b-8-8-------8-8-----8-8-------8-8------------8-8---
g------------------------------------9-------------
D--------------------------------------------------
A--------------------------------------------------
E--------------------------------------------------

e-12-12-10-10-8-8-10-10------------------------
b----------------------------------------------
g----------------------------------------------
D----------------------------------------------
A----------------------------------------------
E----------------------------------------------

e-----10-10-----10------10-10-----10---10-10-----10
b-8-8-------8-8-----8-8-------8-8------------8-8---
g------------------------------------9-------------
D--------------------------------------------------
A--------------------------------------------------
E--------------------------------------------------

e-15-15-14-14-12-12-14-14-15-----------------------
b--------------------------------------------------
g--------------------------------------------------
D--------------------------------------------------
A--------------------------------------------------
E--------------------------------------------------

y el tema termina con un punteo asi:
e-15-15-14-14-12-12-14-14-15-----------------------
b--------------------------------------------------
g--------------------------------------------------
D--------------------------------------------------
A--------------------------------------------------
E--------------------------------------------------


flor de tema
un abrazo a los vagos y a romina..jaja
ricky no murio.
aguante flema!
borde

            
            
Suggest correction
Creating personal tab
Creating personal tab
You can edit any tab online and save it as your Personal.

You can edit, replace or remove any tab part or add personal notes – all changes will be seen only by you.

Personal tabs can be accessed anytime from any device, even offline.
Learn more »
Give kudos to tab author, rate the tab!
1 2 3 4 5
comments
print report bad tab
guest
Wanna post a correction for this tab? Suggest correction