Oops, an error
Loading. Please wait.

Solo Caminando tab

version 1
version 1

Whole song

by Flema
28 views 1 this week
no commentswrite comment
1 2 3 4 5
3 more votes to show rating
add to favorites
×
Save as Personal and add changes to this tab that will be seen only by you. Learn more ›
×
You can save this tab as Personal to edit and correct it or add notes. All changes will be seen only by you. Learn more »
launch autoscroll
font size
0
reset
how to read this tab
guitar tuner
edit
Autoscroll
slow
fast
+/-
esc
set tempo
stop
La otra transcripcion tenia todo bien excepto el punteo que repite
en toda la cancion, ahi les va :D


Primer guitarra

e:---------------------------------------|
b:---------------------------------------|
g:---------------------------------------|
D:---------------------------------------|
A:----------4-7------5-5-5-5-4-2---------|
E:--5-5-5-5------------------------------|

e:---------------------------------------|
b:---------------------------------------|
g:---------------------------------------|
D:---------------------------------------|
A:----------4-7------5-5-5-5-2-----------|
E:--5-5-5-5------------------------------|

(se repite toda la cancion)


segunda guitarra
       A (o nota entera)    D (o nota entera)
e:-----------------------|--------------------|
b:-----------------------|--------------------|
g:-----------------------|--7-----------------|
D:------7----------------|--7-----------------|
A:------7----------------|--5-----------------|
E:------5----------------|--------------------|

A              D
Solo caminando voy sin camino
A                 D
creo como siempre voy sin destino
A                  D
solo hay recuerdos en el olvido
A                  D
voy camino al cielo triste me río
A                   D
siempre a mi lado sueños frustrados
A                 D
y yo me pregunto por qué te amo
A                D
solo el dolor me acerca a vos
A                D
solo miro cómo la lluvia apaga al sol.
(si para mi son solo estas dos notas
 aunque todos digan que son A-D-E)

A        D        E
o0o0ohhh 0o0o0ohh Buscando marihuana
A        D        E
00o0ohhh 0o0o0ohh fumando marihuana.


Solo quiero que se calle mi mente
para por lo menos hoy ya no verte
solo con el fuego pasa el dolor
cerca del infierno me rio hoy.

A        D        E
o0o0ohhh 0o0o0ohh Buscando marihuana
A        D        E
00o0ohhh 0o0o0ohh fumando marihuana.


AGUANTE FLEMA CARAJO !!!!!!

            
            
Suggest correction
Creating personal tab
Creating personal tab
You can edit any tab online and save it as your Personal.

You can edit, replace or remove any tab part or add personal notes – all changes will be seen only by you.

Personal tabs can be accessed anytime from any device, even offline.
Learn more »
Give kudos to tab author, rate the tab!
1 2 3 4 5
comments
print report bad tab
guest
Wanna post a correction for this tab? Suggest correction