Oops, an error
Loading. Please wait.

Ugly Girl tab

2,836 views 1 this week
no commentswrite comment
1 2 3 4 5
3 more votes to show rating
add to favorites
×
Save as Personal and add changes to this tab that will be seen only by you. Learn more ›
×
You can save this tab as Personal to edit and correct it or add notes. All changes will be seen only by you. Learn more »
launch autoscroll
font size
0
reset
how to read this tab
guitar tuner
edit
Autoscroll
slow
fast
+/-
esc
set tempo
stop
Author
Difficulty
Ugly Girl
by Fleming and john
Tabbed by ear, so im not 100%



Chords played throughout song
E:0-----0-----:         :-0-----0---:
B:2-----4-----:         :-0-----2---:
G:2(x5)-4x(5)-:(x2) then:-1(x5)-2---:
D:2-----4-----:         :-2-----2---:
A:0-----2-----:         :-2-----0---:
E:0-----0-----:         :-0-----0---:
Chorus main theme (little percussion sounds)
E:---------------0-0--:
B:---4-4-0-2-2-2--2-2-:
G:1-1-----------------:
D:--------------------:
A:--------------------:
E:--------------------:



Guitar Riff
The beginning of the song has part 1 being played 3 times
This is played during the bridge (part that goes la la la la)
it goes part 1->1->2->1 then 1->1->2->2


Part 1                     part 2
E:---2/4------:            :-----------: 
B:0h2---------:            :0h2-2/4----:
G:------------:            :-----------:
D:------------:            :-----------:
A:------------:            :-----------:
E:------------:            :-----------:


Outro verse is played strummed lightly
Suggest correction
Creating personal tab
Creating personal tab
You can edit any tab online and save it as your Personal.

You can edit, replace or remove any tab part or add personal notes – all changes will be seen only by you.

Personal tabs can be accessed anytime from any device, even offline.
Learn more »
Give kudos to tab author, rate the tab!
1 2 3 4 5
comments
print report bad tab
guest
You may want to rate the tab now too:
select rating
Wanna post a correction for this tab? Suggest correction