Oops, an error
Loading. Please wait.

Gravity tab

559 views 3 this week
no commentswrite comment
1 2 3 4 5
2 more votes to show rating
add to favorites
×
Save as Personal and add changes to this tab that will be seen only by you. Learn more ›
×
You can save this tab as Personal to edit and correct it or add notes. All changes will be seen only by you. Learn more »
launch autoscroll
font size
0
reset
how to read this tab
guitar tuner
edit
Autoscroll
slow
fast
+/-
esc
set tempo
stop
Fleshgod Apocalypse
Gravity


[Intro]

0:00

b |----------------------------------------------------------------------------------------|
F#|----------------------------------------------------------------------------------------|
D |----------------------------------------------------------------------------------------|
A |----------------------------------------------------------------------------------------|
E |-3-3-3--2--3--2--2--3--2--2------------------2--8-8-8-8-8-8-8-8-2--3--2--2--3--2--2--2--|
B |-1-1-1--0--1--0--0--1--0--0--------6-6-6-6-6-0--6-6-6-6-6-6-6-6-0--1--0--0--1--0--0--0--|
    * * *  *     *  *     *  *                  *                        *  *     *  *  *

b |----------------------------------------------------------------------------------------------------------|
F#|----------------------------------------------------------------------------------------------------------|
D |----------------------------------------------------------------------------------------------------------|
A |----------------------------------------------------------------------------------------------------------|
E |---------------------------------2--2--3--4--2--3--4--3--2------2--8-8-8-8-8-8-8-8-2--3--2--2--3--2--2--2-|
B |6-6-6-6-6-6-7-8-9-9-9-9-9-9-9-9\-0--0--1--2--0--1--2--1--0------0--6-6-6-6-6-6-6-6-0--1--0--0--1--0--0--0-|
                                    *  *  *     *  *     *  *      *                        *  *     *  *  *

b |------------------------------------------------------------------------------------------------------|
F#|------------------------------------------------------------------------------------------------------|
D |------------------------------------------------------------------------------------------------------|
A |------------------------------------------------------------------------------------------------------|
E |-11--10--8--2-2--2--11--10--8--2--8--11--3--3--3--3--3--3-3-3--2--3--2--2--3--2--2------------------2-|
B |-9---8---6--0-0--0--9---8---6--0--6--9---1--1--1--1--1--1-1-1--0--1--0--0--1--0--0--------9-9-9-9-9-0-|
               * *  *             *  *      *  *  *  *  *  * * *  *     *  *     *  *                  *

b |----------------------------------------------------------------------------------------------------------|
F#|----------------------------------------------------------------------------------------------------------|
D |----------------------------------------------------------------------------------------------------------|
A |----------------------------------------------------------------------------------------------------------|
E |-8-8-8-8-8-8-8-8-2--3--2--2--3--2--2--2-----------------------------------2--2--3--4--2--3--4--3--2------2|
B |-9-9-9-9-9-9-9-9-0--1--0--0--1--0--0--0--6-6-6-6-6-6-7-8-9-9-9-9-9-9-9-9\-0--0--1--2--0--1--2--1--0------0|
                          *  *     *  *  *                                   *  *  *     *  *     *  *      *

                                             Part B
b |-----------------------------------------|-----------------------------------|
F#|-----------------------------------------|-----------------------------------|
D |-----------------------------------------|-----------------------------------|
A |-----------------------------------------|-----------------------------------|
E |--8-8-8-8-8-8-8-8-2--3--2--2--3--2--2--2-|-----------------------------------|
B |--9-9-9-9-9-9-9-9-0--1--0--0--1--0--0--0-|-9--8--6--0----0--8--6--9--5--6--8-|
                           *  *     *  *  *   *  *  *  *    *  *  *  *  *  *  *

[Verse]

0:32

b |----------------------------------------------------------------------------------------------|
F#|----------------------------------------------------------------------------------------------|
D |----------------------------------------------------------------------------------------------|
A |------------------------------------------------------------------------------4-4-4-4-4-4-3-3-|
E |-2--2--2--3------2--2--2------2--/4--2--2--4--2--2--2--3------2--2--2------2--1-1-1-1-1-1-1-1-|
B |-0--0--0--1------0--0--0------0--/2--0--0--2--0--0--0--1------0--0--0------0------------------|
    *  *  *  *      *  *  *      *      *  *     *  *  *  *      *  *  *      *    
    
b |--------------------------------------------------------------------------------------------|
F#|--------------------------------------------------------------------------------------------|
D |--------------------------------------------------------------------------------------------|
A |--------------------------------------------------------------------------------------------|
E |-2--3--2--4------2--3--2--4----10b-3--2--4--2--3--2--4----3--2--3--4------------------------|
B |-0--1--0--2------0--1--0--2--------1--0--2--0--1--0--2----1--0--1--2--/9--6--0--/6--4--3--0-|
    *  *  *  *      *  *  *  *    A.  *  *     *  *  *  *    *  *  *  *         *

b |--------------------------------------------------------------------------------------------------------|
F#|--------------------------------------------------------------------------------------------------------|
D |--------------------------------------------------------------------------------------------------------|
A |--------------------------------------------------------------------------------------4-4-4-4-4-4-3-3-3-|
E |-2--2--2--3----3--2--2--2------2---------2--2---------2--2--2--3------2--2--2------2--1-1-1-1-1-1-------|
B |-0--0--0--1----1--0--0--0------0--2-2-2--0--0--2-2-2--0--0--0--1------0--0--0------0--------------------|
    *  *  *  *    *  *  *  *      *         *  *         *  *  *  *      *  *  *      *

b |--------------------------------------------------------------------------------------------------|
F#|--------------------------------------------------------------------------------------------------|
D |--------------------------------------------------------------------------------------------------|
A |---------------------------------10b--------------------------------------------------------------|
E |-2--3--2--4----4--2--3--2--4---3-----3--2---------2--3--2--4----3--2--3--4------------------------|
B |-0--1--0--2----2--0--1--0--2---1-----1--0--2-2-2--0--1--0--2----1--0--1--2--/9--6--0--/6--4--3--0-|
    *  *  *  *    *  *  *  *  *   * A.  *  *         *  *  *  *    *  *  *  *         *         *  *

        
[Chorus]

1:04

Lead
b |--------------------------------------------------------------------------------------------------|
F#|-13-13-13-13-13-13-13-13-13-13-13-13-12-12-12b12b12b12b12b12b12b12b12b12b12b12br12-12-12-10-10-10-|
D |--------------------------------------------------------------------------------------------------|
A |-10-10-10-10-10-10-10-10-10-10-10-10-9--9--9b-9b-9b-9b-9b-9b-9b-9b-9b-9b-9b-9b-r9--9--9--7--7--7--|
E |--------------------------------------------------------------------------------------------------|
B |--------------------------------------------------------------------------------------------------|

b |--------------------------------------------------------------------------------------------------|
F#|-12-12-12-12-12-12-12-12-12-12-12-12-13-13-12b12b12b12b12b12b12b12b12b12b12b12br12-12-12-10-10-10-|
D |--------------------------------------------------------------------------------------------------|
A |-9--9--9--9--9--9--9--9--9--9--9--9--10-10-9b-9b-9b-9b-9b-9b-9b-9b-9b-9b-9b-9b-r9--9--9--7--7--7--|
E |--------------------------------------------------------------------------------------------------|
B |--------------------------------------------------------------------------------------------------|

b |-------------------------------------------------------------------------------------------------|
F#|-14-14-14-14-14-14-14-14-14-14-14-14-13-13-17-17-16-16-16-16-16-16-16-16-13-13-13-13-13-13-13-13-|
D |-------------------------------------------------------------------------------------------------|
A |-11-11-11-11-11-11-11-11-11-11-11-11-10-10-14-14-13-13-13-13-13-13-13-13-10-10-10-10-10-10-10-10-|
E |-------------------------------------------------------------------------------------------------|
B |-------------------------------------------------------------------------------------------------|

b |-------------------------------------|
F#|-15-15-15-15-15-15-15-15-15-15-15-15-|
D |-------------------------------------|
A |-12-12-12-12-12-12-12-12-12-12-12-12-|
E |-------------------------------------|
B |-------------------------------------|

Rhythm
b |-----------------------------------------------------------------------------|
F#|-----------------------------------------------------------------------------|
D |-----------------------------------------------------------------------------|
A |-2---------------------------------------------------------------------------|
E |-2----------------2-2-2-2-2--2-2-2-2-2-2-2-2-2--2-2-2--2--5-5-5-5--5-5-5-5-5-|
B |-0----------------0-0-0-0-0--0-0-0-0-0-0-0-0-0--0-0-0--0--3-3-3-3--3-3-3-3-3-|
                     * * * * *  * * * * * * * * *  * * *  *  * * * *  * * * * *

b |-----------------------------------------------------------------------------|
F#|-----------------------------------------------------------------------------|
D |-----------------------------------------------------------------------------|
A |-2---------------------------------------------------------------------------|
E |-2----------------2-2-2-2-2--2-2-2-2-2-2-2-2-2--2-2-2--2--6-6-6-6--6-6-6-6-6-|
B |-0----------------0-0-0-0-0--0-0-0-0-0-0-0-0-0--0-0-0--0--4-4-4-4--4-4-4-4-4-|
                     * * * * *  * * * * * * * * *  * * *  *  * * * *  * * * * *

b |---------------------------------------------------------------------------------------------|
F#|---------------------------------------------------------------------------------------------|
D |---------------------------------------------------------------------------------------------|
A |-6----------------------------------------------------------------------------9--------------|
E |-6----------------6-6-6-6-6--6-6-6-6-6-6-6-6-6--6-6-6--6--9-9-9-9--9-9-9-9-9--9--------------|
B |-4----------------4-4-4-4-4--4-4-4-4-4-4-4-4-4--4-4-4--4--7-7-7-7--7-7-7-7-7--7--------7/16\-|
                     * * * * *  * * * * * * * * *  * * *  *  * * * *  * * * * *

Return To Intro Without Part B


[Instrumental]

1:32

b |----------------------------------------------------------------------------------------|
F#|----------------------------------------------------------------------------------------|
D |----------------------------------------------------------------------------------------|
A |----------------------------------------------------------------------------------------|
E |-3-3-3--2--3--2--2--3--2--2------------------2--8-8-8-8-8-8-8-8-2--3--2--2--3--2--2--2--|
B |-1-1-1--0--1--0--0--1--0--0--------6-6-6-6-6-0--6-6-6-6-6-6-6-6-0--1--0--0--1--0--0--0--|
    * * *  *     *  *     *  *                  *                        *  *     *  *  *

b |----------------------------------------------------------------------------------------------------------|
F#|----------------------------------------------------------------------------------------------------------|
D |----------------------------------------------------------------------------------------------------------|
A |----------------------------------------------------------------------------------------------------------|
E |---------------------------------2--2--3--4--2--3--4--3--2------2--8-8-8-8-8-8-8-8-2--3--2--2--3--2--2--2-|
B |6-6-6-6-6-6-7-8-9-9-9-9-9-9-9-9\-0--0--1--2--0--1--2--1--0------0--6-6-6-6-6-6-6-6-0--1--0--0--1--0--0--0-|
                                    *  *  *     *  *     *  *      *                        *  *     *  *  *

b |------------------------------------------------------------------------------------------------------|
F#|------------------------------------------------------------------------------------------------------|
D |------------------------------------------------------------------------------------------------------|
A |------------------------------------------------------------------------------------------------------|
E |-11--10--8--2-2--2--11--10--8--2--8--11--3--3--3--3--3--3-3-3--2--3--2--2--3--2--2------------------2-|
B |-9---8---6--0-0--0--9---8---6--0--6--9---1--1--1--1--1--1-1-1--0--1--0--0--1--0--0--------9-9-9-9-9-0-|
               * *  *             *  *      *  *  *  *  *  * * *  *     *  *     *  *                  *

b |----------------------------------------------------------------------------------------------------------|
F#|----------------------------------------------------------------------------------------------------------|
D |----------------------------------------------------------------------------------------------------------|
A |----------------------------------------------------------------------------------------------------------|
E |-8-8-8-8-8-8-8-8-2--3--2--2--3--2--2--2-----------------------------------2--2--3--4--2--3--4--3--2------2|
B |-9-9-9-9-9-9-9-9-0--1--0--0--1--0--0--0--6-6-6-6-6-6-7-8-9-9-9-9-9-9-9-9\-0--0--1--2--0--1--2--1--0------0|
                          *  *     *  *  *                                   *  *  *     *  *     *  *      *

                                            
b |-----------------------------------------|
F#|-----------------------------------------|
D |-----------------------------------------|
A |-----------------------------------------|
E |--8-8-8-8-8-8-8-8-2--3--2--2--3--2--2--2-|
B |--9-9-9-9-9-9-9-9-0--1--0--0--1--0--0--0-|
                           *  *     *  *  *  

Return To Verse                                            


[Verse] 

2:05

b |----------------------------------------------------------------------------------------------|
F#|----------------------------------------------------------------------------------------------|
D |----------------------------------------------------------------------------------------------|
A |------------------------------------------------------------------------------4-4-4-4-4-4-3-3-|
E |-2--2--2--3------2--2--2------2--/4--2--2--4--2--2--2--3------2--2--2------2--1-1-1-1-1-1-1-1-|
B |-0--0--0--1------0--0--0------0--/2--0--0--2--0--0--0--1------0--0--0------0------------------|
    *  *  *  *      *  *  *      *      *  *     *  *  *  *      *  *  *      *    
    
b |--------------------------------------------------------------------------------------------|
F#|--------------------------------------------------------------------------------------------|
D |--------------------------------------------------------------------------------------------|
A |--------------------------------------------------------------------------------------------|
E |-2--3--2--4------2--3--2--4----10b-3--2--4--2--3--2--4----3--2--3--4------------------------|
B |-0--1--0--2------0--1--0--2--------1--0--2--0--1--0--2----1--0--1--2--/9--6--0--/6--4--3--0-|
    *  *  *  *      *  *  *  *    A.  *  *     *  *  *  *    *  *  *  *         *

b |--------------------------------------------------------------------------------------------------------|
F#|--------------------------------------------------------------------------------------------------------|
D |--------------------------------------------------------------------------------------------------------|
A |--------------------------------------------------------------------------------------4-4-4-4-4-4-3-3-3-|
E |-2--2--2--3----3--2--2--2------2---------2--2---------2--2--2--3------2--2--2------2--1-1-1-1-1-1-------|
B |-0--0--0--1----1--0--0--0------0--2-2-2--0--0--2-2-2--0--0--0--1------0--0--0------0--------------------|
    *  *  *  *    *  *  *  *      *         *  *         *  *  *  *      *  *  *      *

b |--------------------------------------------------------------------------------------------------|
F#|--------------------------------------------------------------------------------------------------|
D |--------------------------------------------------------------------------------------------------|
A |---------------------------------10b--------------------------------------------------------------|
E |-2--3--2--4----4--2--3--2--4---3-----3--2---------2--3--2--4----3--2--3--4------------------------|
B |-0--1--0--2----2--0--1--0--2---1-----1--0--2-2-2--0--1--0--2----1--0--1--2--/9--6--0--/6--4--3--0-|
    *  *  *  *    *  *  *  *  *   * A.  *  *         *  *  *  *    *  *  *  *         *         *  *

Return To Chorus


[Chorus]

1:04

Lead
b |--------------------------------------------------------------------------------------------------|
F#|-13-13-13-13-13-13-13-13-13-13-13-13-12-12-12b12b12b12b12b12b12b12b12b12b12b12br12-12-12-10-10-10-|
D |--------------------------------------------------------------------------------------------------|
A |-10-10-10-10-10-10-10-10-10-10-10-10-9--9--9b-9b-9b-9b-9b-9b-9b-9b-9b-9b-9b-9b-r9--9--9--7--7--7--|
E |--------------------------------------------------------------------------------------------------|
B |--------------------------------------------------------------------------------------------------|

b |--------------------------------------------------------------------------------------------------|
F#|-12-12-12-12-12-12-12-12-12-12-12-12-13-13-12b12b12b12b12b12b12b12b12b12b12b12br12-12-12-10-10-10-|
D |--------------------------------------------------------------------------------------------------|
A |-9--9--9--9--9--9--9--9--9--9--9--9--10-10-9b-9b-9b-9b-9b-9b-9b-9b-9b-9b-9b-9b-r9--9--9--7--7--7--|
E |--------------------------------------------------------------------------------------------------|
B |--------------------------------------------------------------------------------------------------|

b |-------------------------------------------------------------------------------------------------|
F#|-14-14-14-14-14-14-14-14-14-14-14-14-13-13-17-17-16-16-16-16-16-16-16-16-13-13-13-13-13-13-13-13-|
D |-------------------------------------------------------------------------------------------------|
A |-11-11-11-11-11-11-11-11-11-11-11-11-10-10-14-14-13-13-13-13-13-13-13-13-10-10-10-10-10-10-10-10-|
E |-------------------------------------------------------------------------------------------------|
B |-------------------------------------------------------------------------------------------------|

b |-------------------------------------|
F#|-15-15-15-15-15-15-15-15-15-15-15-15-|
D |-------------------------------------|
A |-12-12-12-12-12-12-12-12-12-12-12-12-|
E |-------------------------------------|
B |-------------------------------------|

Rhythm
b |-----------------------------------------------------------------------------|
F#|-----------------------------------------------------------------------------|
D |-----------------------------------------------------------------------------|
A |-2---------------------------------------------------------------------------|
E |-2----------------2-2-2-2-2--2-2-2-2-2-2-2-2-2--2-2-2--2--5-5-5-5--5-5-5-5-5-|
B |-0----------------0-0-0-0-0--0-0-0-0-0-0-0-0-0--0-0-0--0--3-3-3-3--3-3-3-3-3-|
                     * * * * *  * * * * * * * * *  * * *  *  * * * *  * * * * *

b |-----------------------------------------------------------------------------|
F#|-----------------------------------------------------------------------------|
D |-----------------------------------------------------------------------------|
A |-2---------------------------------------------------------------------------|
E |-2----------------2-2-2-2-2--2-2-2-2-2-2-2-2-2--2-2-2--2--6-6-6-6--6-6-6-6-6-|
B |-0----------------0-0-0-0-0--0-0-0-0-0-0-0-0-0--0-0-0--0--4-4-4-4--4-4-4-4-4-|
                     * * * * *  * * * * * * * * *  * * *  *  * * * *  * * * * *

b |---------------------------------------------------------------------------------------------|
F#|---------------------------------------------------------------------------------------------|
D |---------------------------------------------------------------------------------------------|
A |-6----------------------------------------------------------------------------9--------------|
E |-6----------------6-6-6-6-6--6-6-6-6-6-6-6-6-6--6-6-6--6--9-9-9-9--9-9-9-9-9--9--------------|
B |-4----------------4-4-4-4-4--4-4-4-4-4-4-4-4-4--4-4-4--4--7-7-7-7--7-7-7-7-7--7--------7/16\-|
                     * * * * *  * * * * * * * * *  * * *  *  * * * *  * * * * *

                                         
[Bridge(N)]

3:05

Lead
b |------------------------------------------------------------------------------------------------|
F#|------------------------------------------------------------------------------------------------|
D |-8-8-7-7-8-8-7-7-8-8-7-7-8-8-7-7-5-5-8-8-7-7-5-5-7-7-5-5-3-3-7-7-5-5-7-7-5-5-7-7-5-5-3-3-5-5-1-1|
A |------------------------------------------------------------------------------------------------|
E |------------------------------------------------------------------------------------------------|
B |------------------------------------------------------------------------------------------------|

b |-----------------------------------------------------8-8-6-6----------------------------------------|
F#|-------------------------------------------------9-9---------9-9-8-8-9-9-8-8------------------------|
D |-5-5-3-3-5-5-3-3-5-5-3-3-5-5-3-3-1-1-6-6-8-8-9-9-----------------------------8-8-7-7-8-8-7-7-5-5-5-5|
A |----------------------------------------------------------------------------------------------------|
E |----------------------------------------------------------------------------------------------------|
B |----------------------------------------------------------------------------------------------------|

b |----------------------------------------------------------------------------------------|
F#|----------------------------------------------------------------------------------------|
D |-8-8-7-7-8-8-7-7-5-5-7-7-5-5-3-3-7-7-5-5-7-7-5-5-7-7-5-5-7-7-5-5-7-7-5-5-3-3-5-5-3-3-1-1|
A |----------------------------------------------------------------------------------------|
E |----------------------------------------------------------------------------------------|
B |----------------------------------------------------------------------------------------|

b |-----------------------------|
F#|-----------------------------|
D |-5-5-3-3-5-5-3-3-5-5-3-3-1-1-|
A |-----------------------------|
E |-----------------------------|
B |-----------------------------|

Rhythm
b |----------------------------------------------------------------------------------------|
F#|----------------------------------------------------------------------------------------|
D |----------------------------------------------------------------------------------------|
A |----------------------------------------------------------------------------------------|
E |-5-5-5-5-5-5-5-5-5-5-5-5-5-5-5-5-5-5-5-5-5-5--------------------------------------------|
B |---------------------------------------------5-5-5-5-5-5-5-5-5-5-5-5-5-5-5-5-5-5-5-5-5-5|

b |----------------------------------------------------------------------------------------|
F#|----------------------------------------------------------------------------------------|
D |----------------------------------------------------------------------------------------|
A |----------------------------------------------------------------------------------------|
E |----------------------------------------------------------------------------------------|
B |-4-4-4-4-4-4-4-4-4-4-4-4-4-4-4-4-4-4-4-4-4-4-5-5-5-5-5-5-5-5-5-5-5-5-5-5-5-5-5-5-5-5-5-5|

b |----------------------------------------------------------------------------------------|
F#|----------------------------------------------------------------------------------------|
D |----------------------------------------------------------------------------------------|
A |----------------------------------------------------------------------------------------|
E |-5-5-5-5-5-5-5-5-5-5-5-5-5-5-5-5-5-5-5-5-5-5--------------------------------------------|
B |---------------------------------------------5-5-5-5-5-5-5-5-5-5-5-5-5-5-5-5-5-5-5-5-5-5|

b |-----------------------------------------------------------------------------------------|
F#|-----------------------------------------------------------------------------------------|
D |-----------------------------------------------------------------------------------------|
A |---------------------------------------------7--7--7--7--7--7--7--7--7--7--7--7--7--7--7-|
E |---------------------------------------------5--5--5--5--5--5--5--5--5--5--5--5--5--5--5-|
B |-4-4-4-4-4-4-4-4-4-4-4-4-4-4-4-4-4-4-4-4-4-4---------------------------------------------|


[Solo]

3:37

Rhythm
b |------------------------------------------------------------------------------------------------|
F#|------------------------------------------------------------------------------------------------|
D |-7--7--7--7--7--7--7--7--7--7--7--7--7--9--9--7--5--5--5--5--5--5--5--5--5--5--5--5--5--5--5--5-|
A |-7--7--7--7--7--7--7--7--7--7--7--7--7--9--9--7--5--5--5--5--5--5--5--5--5--5--5--5--5--5--5--5-|
E |-5--5--5--5--5--5--5--5--5--5--5--5--5--7--7--5--3--3--3--3--3--3--3--3--3--3--3--3--3--3--3--3-|
B |------------------------------------------------------------------------------------------------|

b |------------------------------------------------------------------------------------------------|
F#|------------------------------------------------------------------------------------------------|
D |-9--9--7--7--7--7--7-----------------------------------------7--7--7--7--7--7--7--7--7--7--7--7-|
A |-9--9--7--7--7--7--7--8--8--8--8--8--8--8--8--8--8--8--8--8--7--7--7--7--7--7--7--7--7--7--7--7-|
E |-7--7--5--5--5--5--5--8--8--8--8--8--8--8--8--8--8--8--8--8--5--5--5--5--5--5--5--5--5--5--5--5-|
B |----------------------6--6--6--6--6--6--6--6--6--6--6--6--6-------------------------------------|

b |---------------------------------------------------------------------------------------------------|
F#|---------------------------------------------------------------------------------------------------|
D |----------------------------------------------------------------------------7--7--7--7--7--7--7--7-|
A |-3----3----3----3--3--3--3--3--3--3--3--3--3--3--3--3--3--3--3--3--3--3--3--7--7--7--7--7--7--7--7-|
E |-3----3----3----3--3--3--3--3--3--3--3--3--3--3--3--3--3--3--3--3--3--3--3--5--5--5--5--5--5--5--5-|
B |-1----1----1----1--1--1--1--1--1--1--1--1--1--1--1--1--1--1--1--1--1--1--1-------------------------|
         *    *

b |------------------------------------------------------------------------------------------------|
F#|------------------------------------------------------------------------------------------------|
D |-7--7--7--7--7--7--7--7-------------------------------------------------------------------------|
A |-7--7--7--7--7--7--7--7--3--3--3--3--3--3--3--3--3--3--3--3--3--3--3--3--3--3--3--3--3--3--3--3-|
E |-5--5--5--5--5--5--5--5--3--3--3--3--3--3--3--3--3--3--3--3--3--3--3--3--3--3--3--3--3--3--3--3-|
B |-------------------------1--1--1--1--1--1--1--1--1--1--1--1--1--1--1--1--1--1--1--1--1--1--1--1-|

b |------------------------------------------------|
F#|------------------------------------------------|
D |------------------------------------------------|
A |-3--3--3--3--2--2--2--2--2--2--2--2--2--2--2--2-|
E |-3--3--3--3--2--2--2--2--2--2--2--2--2--2--2--2-|
B |-1--1--1--1--0--0--0--0--0--0--0--0--0--0--0--0-|

Lead
b |/14--14~----------14~----------14~-------16b--------14~------13~--------------------------------|
F#|-----------------------------------------x-------14-------11------------------------------------|
D |-----------------------------------------x------------------------------------------------------|
A |------------------------------------------------------------------------------------------------|
E |------------------------------------------------------------------------------------------------|
B |------------------------------------------------------------------------------------------------|

b |-------------------------------------------------------------------------------------------|
F#|-------------------------/18-18-18-18--16-16-16-16~\--/16-16-16-16--14-14-14-14------------|
D |--------------------------------------------------------------------------------17--17--17-|
A |-------------------------------------------------------------------------------------------|
E |-------------------------------------------------------------------------------------------|
B |-13\---\-----\-----\-----------------------------------------------------------------------|
                                                                                       *   *

b |-------------------------------------------------------------------------------------------------------|
F#|---------------------------------------11--13-13br-------------/14-14-14~----/18-18-18~----/23-23-23~--|
D |-17br\15--18b-----15--15~----------11---------------10--11~--------------------------------------------|
A |-------------------------------------------------------------------------------------------------------|
E |-------------------------------------------------------------------------------------------------------|
B |-------------------------------------------------------------------------------------------------------|
                                      *

b |----21b----------19~--19~--19~------\--/21-21-21---------------------------------------------------|
F#|----x---------------------------------------------22-22-22--19-19-19-------------------------------|
D |----x-----------------------------------------------------------------18-18-18---------------------|
A |--------------------------------------------------------------------------------19-19-19--16-16-16-|
E |---------------------------------------------------------------------------------------------------|
B |---------------------------------------------------------------------------------------------------|

b |----------------------------------------------------------------------------------------|
F#|--------------------------------------------------------------------------------13-15-17|
D |-----------------------------------------------------------------10-12-14-12-10---------|
A |--------------------------------------------------------10-12-14------------------------|
E |-16-16-16---------------------------------------8-10-12---------------------------------|
B |-----------17-17-17--14~----\------8-10-12-10-8-----------------------------------------|
                                      * *  *  *  * * *  *  *  *  *

b |-13-15-17-15-13-15-17-19-17-15-------/24b~-----------------------\|
F#|-------------------------------18-20------------------------------|
D |------------------------------------------------------------------|
A |------------------------------------------------------------------|
E |------------------------------------------------------------------|
B |------------------------------------------------------------------|
*to help increase pitch of last note, press string firmly

[Final Chorus]

4:09

Rhythm
b |-----------------------------------------------------------------------------|
F#|-----------------------------------------------------------------------------|
D |-----------------------------------------------------------------------------|
A |-2---------------------------------------------------------------------------|
E |-2----------------2-2-2-2-2--2-2-2-2-2-2-2-2-2--2-2-2--2--5-5-5-5--5-5-5-5-5-|
B |-0----------------0-0-0-0-0--0-0-0-0-0-0-0-0-0--0-0-0--0--3-3-3-3--3-3-3-3-3-|
                     * * * *    * * * * * * * * *  * * *  *  * * * *  * * * * *

b |-----------------------------------------------------------------------------|
F#|-----------------------------------------------------------------------------|
D |-----------------------------------------------------------------------------|
A |-2---------------------------------------------------------------------------|
E |-2----------------2-2-2-2-2--2-2-2-2-2-2-2-2-2--2-2-2--2--6-6-6-6--6-6-6-6-6-|
B |-0----------------0-0-0-0-0--0-0-0-0-0-0-0-0-0--0-0-0--0--4-4-4-4--4-4-4-4-4-|
                     * * * *    * * * * * * * * *  * * *  *  * * * *  * * * * *

b |---------------------------------------------------------------------------------------------|
F#|---------------------------------------------------------------------------------------------|
D |---------------------------------------------------------------------------------------------|
A |-6----------------------------------------------------------------------------9--------------|
E |-6----------------6-6-6-6-6--6-6-6-6-6-6-6-6-6--6-6-6--6--9-9-9-9--9-9-9-9-9--9--------------|
B |-4----------------4-4-4-4-4--4-4-4-4-4-4-4-4-4--4-4-4--4--7-7-7-7--7-7-7-7-7--7--------7/16\-|
                     * * * *    * * * * * * * * *  * * *  *  * * * *  * * * * *

Return To Intro Without Part B


[Instrumental]

4:37

b |----------------------------------------------------------------------------------------|
F#|----------------------------------------------------------------------------------------|
D |----------------------------------------------------------------------------------------|
A |----------------------------------------------------------------------------------------|
E |-3-3-3--2--3--2--2--3--2--2------------------2--8-8-8-8-8-8-8-8-2--3--2--2--3--2--2--2--|
B |-1-1-1--0--1--0--0--1--0--0--------6-6-6-6-6-0--6-6-6-6-6-6-6-6-0--1--0--0--1--0--0--0--|
    * * *  *     *  *     *  *                  *                        *  *     *  *  *

b |----------------------------------------------------------------------------------------------------------|
F#|----------------------------------------------------------------------------------------------------------|
D |----------------------------------------------------------------------------------------------------------|
A |----------------------------------------------------------------------------------------------------------|
E |---------------------------------2--2--3--4--2--3--4--3--2------2--8-8-8-8-8-8-8-8-2--3--2--2--3--2--2--2-|
B |6-6-6-6-6-6-7-8-9-9-9-9-9-9-9-9\-0--0--1--2--0--1--2--1--0------0--6-6-6-6-6-6-6-6-0--1--0--0--1--0--0--0-|
                                    *  *  *     *  *     *  *      *                        *  *     *  *  *

b |------------------------------------------------------------------------------------------------------|
F#|------------------------------------------------------------------------------------------------------|
D |------------------------------------------------------------------------------------------------------|
A |------------------------------------------------------------------------------------------------------|
E |-11--10--8--2-2--2--11--10--8--2--8--11--3--3--3--3--3--3-3-3--2--3--2--2--3--2--2------------------2-|
B |-9---8---6--0-0--0--9---8---6--0--6--9---1--1--1--1--1--1-1-1--0--1--0--0--1--0--0--------9-9-9-9-9-0-|
               * *  *             *  *      *  *  *  *  *  * * *  *     *  *     *  *                  *

b |----------------------------------------------------------------------------------------------------------|
F#|----------------------------------------------------------------------------------------------------------|
D |----------------------------------------------------------------------------------------------------------|
A |----------------------------------------------------------------------------------------------------------|
E |-8-8-8-8-8-8-8-8-2--3--2--2--3--2--2--2-----------------------------------2--2--3--4--2--3--4--3--2------2|
B |-9-9-9-9-9-9-9-9-0--1--0--0--1--0--0--0--6-6-6-6-6-6-7-8-9-9-9-9-9-9-9-9\-0--0--1--2--0--1--2--1--0------0|
                          *  *     *  *  *                                   *  *  *     *  *     *  *      *

                                            
b |-----------------------------------------|
F#|-----------------------------------------|
D |-----------------------------------------|
A |-----------------------------------------|
E |--8-8-8-8-8-8-8-8-2--3--2--2--3--2--2--2-|
B |--9-9-9-9-9-9-9-9-0--1--0--0--1--0--0--0-|
                           *  *     *  *  *

[Outro]

5:08

b |-------------------------------------|
F#|-------------------------------------|
D |-------------------------------------|
A |-------------------------------------|
E |---------------------10b-------------|
B |-9--8--6--0----0--8-------9--5--6--8-|
    *  *  *  *    *  *  A.   *  *  *  *


************************************

| x   Dead note
| r   Release
| b   Bend
| br  Bend release
| /   Slide up
| \   Slide down
| ~   Vibrato
| A.  Artificial Harmonic
| *   Palm mute
************************************

            
            
Suggest correction
Creating personal tab
Creating personal tab
You can edit any tab online and save it as your Personal.

You can edit, replace or remove any tab part or add personal notes – all changes will be seen only by you.

Personal tabs can be accessed anytime from any device, even offline.
Learn more »
Give kudos to tab author, rate the tab!
1 2 3 4 5
comments
print report bad tab
guest
You may want to rate the tab now too:
select rating
Wanna post a correction for this tab? Suggest correction