Oops, an error
Loading. Please wait.

Minotaur The Wrath Of Poseidon tab

version 1
version 1

Whole song

Interactive

1,201 views 9 this week
9 commentsread comments
1 2 3 4 5
x 7
add to favorites
×
Save as Personal and add changes to this tab that will be seen only by you. Learn more ›
×
You can save this tab as Personal to edit and correct it or add notes. All changes will be seen only by you. Learn more »
launch autoscroll
font size
0
reset
how to read this tab
guitar tuner
edit
Autoscroll
slow
fast
+/-
esc
set tempo
stop
Tuning: B Standard

(0:22)
b |5--------5-----------------------------------------------------------------------------------------------|
F#|-5--------5----------------------------------------------------------------------------------------------|
D |--5--------5---------------------------------------------------------------------------------------------|
A |---5--------5--------------------------------------------------------------------------------------------|
E |-----2-2------2-2-4--4-4-4-4-4--4--4-4-4-4-4--5-5-5-5-5-5-5--4--4-4-4-4-4--4--4-4-4-4-4--10-9--8--11-10-9|
B |-----0-0------0-0-2--2-2-2-2-2--2--2-2-2-2-2--3-3-3-3-3-3-3--2--2-2-2-2-2--2--2-2-2-2-2--8--7--6--9--8--7|
   ++++ * * ++++ * * *  * * * * *  *  * * * * *  * * * * * * *  *  * * * * *  *  * * * * *  *  *  *  *  *  *

b |---------------------------------------------------------------5------------------|
F#|----------------------------------------------------------------5-----------------|
D |-----------------------------------------------------------------5----------------|
A |------------------------------------------------------------------5---------------|
E |-4--4-4-4-4-4--4--4-4-4-4-4--5-5-5-5-5-5-5--4--4-4-4-4-4--4--4------2-2-232-2-2wd-|
B |-2--2-2-2-2-2--2--2-2-2-2-2--3-3-3-3-3-3-3--2--2-2-2-2-2--2--2------0-0-----0-----|
    *  * * * * *  *  * * * * *  * * * * * * *  *  * * * * *  *    ++++ * *     *
                                                                 !if you don't have a whammy just pre-bend at 
                                                                           the first fret and slowly release!

b |---------------------------------------------------------------------------------------------------|
F#|---------------------------------------------------------------------------------------------------|
D |---------------------------------------------------------------------------------------------------|
A |---------------------------------------------------------------------------------------------------|
E |4--4-4-4-4-4--4--5-5-5-5-5--4-4-4-4--4-4-4-4-4-4-4--4-4-4-4-2--2--2--2--4--4-4-4-4-4--4--4-4-4-4-4-|
B |2--2-2-2-2-2--2--3-3-3-3-3--2-2-2-2--2-2-2-2-2-2-2--2-2-2-2-0--0--0--0--2--2-2-2-2-2--2--2-2-2-2-2-|
   *  * * * * *  *  * * * * *  * * * *  * * * * * * *  * * * * *  *  *  *  *  * * * * *  *  * * * * *

b |------------------------------------------------------------------|
F#|------------------------------------------------------------------|
D |------------------------------------------------------------------|
A |------------------------------------------------------------------|
E |5-5-5-5-5-5-5--4---4---4--4--4------------------------------------|
B |3-3-3-3-3-3-3--2---2---2--2--2--0-0-0--0-0-0--0-0-0--0-0-0--0-0-0-|
   * * * * * * *  *   *

(0:47)
b |----------------------------------------------------------------------------------------|
F#|----------------------------------------------------------------------------------------|
D |----------------------------------------------------------------------------------------|
A |----------------------------------------------------------------------------------------|
E |-232-0---0---1/3-3---0---0---0---0---1/2-2---0-------2---3---232-0---232-0---232-0---5--|
B |-----0---0---1/3-3---0---0---0---0---1/2-2---0---2---------------0-------0-------0------|
        *   *   *   *   *   *   *   *   *   *   *                   *       *       *   =

b |--------------------------------------------------------------------------------|
F#|--------------------------------------------------------------------------------|
D |--------------------------------------------------------------------------------|
A |--------------------------------------------------------------------------------|
E |-0---1/3-3---1---3---5---7---0---0-------0---0-------0---0---0-------0---1/3-3--|
B |-0---1/3-3---1---3---5---7---0---0---232-0---0---232-0---0---0---232-0---1/3-3--|
    *                           *   *       *   *       *   *   *       *

b |----------------------------------------------------------------------|
F#|----------------------------------------------------------------------|
D |-------------------------------------------------------9-11-12--------|
A |-------------------------------------7-9--------7-9-10----------------|
E |-6-5-3-------8-7-5-------10-9-7-9-10-----7-9-10-----------------------|
B |-------6-5-3-------8-7-5---------------------------------------0-0-0--|

(1:00)
b |--------------------------------------------------------------------|
F#|--------------------------------------------------------------------|
D |--------------------------------------------------------------------|
A |--------------------------------------------------------------------|
E |-0---0---232-0---0---232-0---0---0---0---232-0---232-0---232-0---5--|
B |-0---0-------0---0-------0---0---0---0-------0-------0-------0------|
    *   *       *   *       *   *   *   *       *       *       *   =

b |---------------------------------------------------------------------------|
F#|---------------------------------------------------------------------------|
D |---------------------------------------------------------------------------|
A |---------------------------------------------------------------------------|
E |-0---1/3-1---5---3---9---8---0---0-------0---0-------0-------0---1/2-2---2-|
B |-0---1/3-1---5---3---9---8---0---0---232-0---0---232-0---232-0---1/2-2---2-|
    *                           *   *       *   *       *       *   *   *   *

b |---------------------------------------------------------------------|
F#|---------------------------------------------------------------------|
D |-------------------------------------------------------------9-11-12-|
A |-------------------------------------------7-9--------7-9-10---------|
E |-6-5-3-------8-7-5-5---0---0---10-9-7-9-10-----7-9-10----------------|
B |-------6-5-3-----------0---0-----------------------------------------|
                      =   *   *

b |--------------------------------------------------------------------------|
F#|--------------------------------------------------------------------------|
D |----------------------------------------------------------------------4-8-|
A |-----------------------------------------232323232-343434-----------6-----|
E |-0---0---0---0---2---0---0---0---2---2--------------------6-3-7-4-7-------|
B |-0---0---0---0---0---0---0---0---0---0------------------------------------|
        *   *           *   *                                * * * * * *

b |-------------------------------------------------------------------------------------------------------|
F#|-------------------------------------------------------------------------------------------------------|
D |-------------------------------------------------------------------------------------------------------|
A |-------------------------------------------------------------------------------------------------------|
E |-0---0---0---0---2---0---0---0---2---5-5-5-5-5-5-5--4-4-4-4-4--2-2-2-2-0---0---2-2-2-2-0---0---2-2-2-2-|
B |-0---0---0---0---0---0---0---0---0---3-3-3-3-3-3-3--2-2-2-2-2--0-0-0-0-0---0---0-0-0-0-0---0---0-0-0-0-|
        *   *           *   *           * * * * * * *  * * * * *          *   *           *   *

b |-----------------------------------------------------------|
F#|-----------------------------------------------------------|
D |-------------------------------------------------8-4-------|
A |-----------------------------------------------------6-----|
E |-5-5-5-5-5-5-5-5-5-5-5-5-5-5-5-5-4-4-4-4-4-4-4-4-------7-4-|
B |-3-3-3-3-3-3-3-3-3-3-3-3-3-3-3-3-2-2-2-2-2-2-2-2-----------|
                                                                 
b |--------------------------------------------------|
F#|--------------------------------------------------|
D |--------------------------------------------------|
A |--------------------------------------------------|
E |-10--10--10--10-10-10-11--11--11--11-11-11-13--13-|
B |-8---8---8---8--8--8--9---9---9---9--9--9--11--11-|
        *   *                *   *                *

(1:30)
b |------------------------------------------------------------------------------------------------------|
F#|------------------------------------------------------------------------------------------------------|
D |----------------------------------------------------------------------------------------------5-2-----|
A |--------------------------------------------------------------------------------------------------3---|
E |7457457457457457457457-456346346346346346346346-347457457457457457457457-45523523523523523523-------2-|
B |------------------------------------------------------------------------------------------------------|

b |-------------------------------------------------------------------------------------------------|
F#|-------------------------------------------------------------------------------------------------|
D |-------------------------------------------------------------------------------------------------|
A |-------------------------------------------------------------------------------------------------|
E |-3-3-3-3-3-3-3-3-7-7-7-7-0-0-0-0-10-10-10-10-10-10-10-10-10-10-10-10-10-10-10-10-8-8-8-8-8-8-8-8-|
B |-------------------------------------------------------------------------------------------------|

b |--------------------------------------------------------|
F#|--------------------------------------------------------|
D |-12-7-----------12-9-12-9-------------------------------|
A |------9-------------------12-9-12-9---------------------|
E |--------10-7-10---------------------12-9-12-9-----------|
B |----------------------------------------------12-9-12-9-|

b |-------------------------------------------------------------------------------------------------|
F#|-------------------------------------------------------------------------------------------------|
D |-------------------------------------------------------------------------------------------------|
A |-------------------------------------------------------------------------------------------------|
E |-------------------------------------------------------------------------532---------------------|
B |-0-0-0-0-0-0-0-0-0-0-0-0-0-0-0-0-0-0-0-0-0-0-0-0-0-0-0-0-0-0-0-0-532-532-----532-532-532-421-421-|
                                                                    *** *** *** *** *** *** *** ***

(1:57)
b |------------------------------------------------------------------------------------------------------|
F#|------------------------------------------------------------------------------------------------------|
D |------------------------------------------------------------------------------------------------------|
A |-----------------------------------------2---3---232-----232-----232-----------------------0---2---3--|
E |-232-0---232-0---232-0---0---232-0---2---------------0-------0-------0---5---0---1/2---2--------------|
B |-----0-------0-------0---0-------0-------------------0-------0-------0-------0---1/2---2--------------|
        *       *       *   *       *                   *       *       *   =   *

b |-------------------------------------------------------------------------------------------------------|
F#|-------------------------------------------------------------------------------------------------------|
D |-------------------------------------------------------------------------------------------------------|
A |-----------------------------------------------------------------------------------875------1097-------|
E |-0---0---232-0---0---232-0---0---0---232-0---0---1/2---0---653-2-2---875-4-4---875-----1097------------|
B |-0---0-------0---0-------0---0---0-------0---0---1/2---0-------0-0-------2-2---------------------0-0-0-|
    *   *       *   *       *   *   *       *   *         *       * *       * *

(2:20)
b |---------------------------------------------------------------------------------------------------------|
F#|---------------------------------------------------------------------------------------------------------|
D |---------------------------------------------------------------------------------------------------------|
A |--------------------------------------------------------------------------------------------0--2--0--2--3|
E |232-0---232-0---0---0---1/2---0---0---232-0---232-0---232-0---232-0---0---5---0---1/2---2----------------|
B |----0-------0---0---0---1/2---0---0-------0-------0-------0-------0---0-------0---1/2---2----------------|
       *       *   *   *         *   *       *       *       *       *   *   =   *         *   

b |---------------------------------------------------------------------------------------------------------|
F#|---------------------------------------------------------------------------------------------------------|
D |---------------------------------------------------------------------------------------------------------|
A |--------------------------------------------------------------------------------------------875------1097|
E |0---0---232-0---0---232-0---0---232-0---0---1/2---2---2--2-2-2-2-2-2-2-2----5---0---0---875-----1097-----|
B |0---0-------0---0-------0---0-------0---0---1/2---2---2--0-0-0-0-0-0-0-0--------0---0--------------------|
   *   *       *   *       *   *       *   *                                   =   *   *

b |--------------------------------------------------------------------------|
F#|--------------------------------------------------------------------------|
D |----------------------------------------------------------------------4-8-|
A |-----------------------------------------232323232-343434-----------6-----|
E |-0---0---0---0---2---0---0---0---2---2--------------------6-3-7-4-7-------|
B |-0---0---0---0---0---0---0---0---0---0------------------------------------|
        *   *           *   *                                * * * * * *

b |-------------------------------------------------------------------------------------------------------|
F#|-------------------------------------------------------------------------------------------------------|
D |-------------------------------------------------------------------------------------------------------|
A |-------------------------------------------------------------------------------------------------------|
E |-0---0---0---0---2---0---0---0---2---5-5-5-5-5-5-5--4-4-4-4-4--2-2-2-2-0---0---2-2-2-2-0---0---2-2-2-2-|
B |-0---0---0---0---0---0---0---0---0---3-3-3-3-3-3-3--2-2-2-2-2--0-0-0-0-0---0---0-0-0-0-0---0---0-0-0-0-|
        *   *           *   *           * * * * * * *  * * * * *          *   *           *   *

b |-----------------------------------------------------------|
F#|-----------------------------------------------------------|
D |-------------------------------------------------8-4-------|
A |-----------------------------------------------------6-----|
E |-5-5-5-5-5-5-5-5-5-5-5-5-5-5-5-5-4-4-4-4-4-4-4-4-------7-4-|
B |-3-3-3-3-3-3-3-3-3-3-3-3-3-3-3-3-2-2-2-2-2-2-2-2-----------|
                                                                  
b |--------------------------------------------------|
F#|--------------------------------------------------|
D |--------------------------------------------------|
A |--------------------------------------------------|
E |-10--10--10--10-10-10-11--11--11--11-11-11-13--13-|
B |-8---8---8---8--8--8--9---9---9---9--9--9--11--11-|
        *   *                *   *                *

(2:40)
b |-------------------------------------------------------------------------------------|
F#|-------------------------------------------------------------------------------------|
D |-------------------------------------------------------------------------------------|
A |-------------------------------------------------------------------------------------|
E |-2--------------------------------2-2-2-2-2-2-2-2-2----------------------------------|
B |-0--------------------------------0-0-0-0-0-0-0-0-0----------------------------------|
                                     * * * * * * * *

(3:04)
b |-------------------------------------------------------------------------------------------------|
F#|-------------------------------------------------------------------------------------------------|
D |-------------------------------------------------------------------------------------------------|
A |-------------------------------------------------------------------------------------------------|
E |-5-5-5-5-5-5-5-5-5-5-5-5-5-5-5-5-5-5-5-5-5-5-5-5-4-4-4-4-4-4-4-4-4-4-4-4-4-4-4-4-4-4-4-4-4-4-4-4-|
B |-3-3-3-3-3-3-3-3-3-3-3-3-3-3-3-3-3-3-3-3-3-3-3-3-2-2-2-2-2-2-2-2-2-2-2-2-2-2-2-2-2-2-2-2-2-2-2-2-|

b |-------------------------------------------------------------------------------------------------|
F#|-------------------------------------------------------------------------------------------------|
D |-------------------------------------------------------------------------------------------------|
A |-------------------------------------------------------------------------------------------------|
E |-5-5-5-5-5-5-5-5-5-5-5-5-5-5-5-5-5-5-5-5-5-5-5-5-2-2-2-2-2-2-2-2-2-2-2-2-2-2-2-2-2-2-2-2-2-2-2-2-|
B |-3-3-3-3-3-3-3-3-3-3-3-3-3-3-3-3-3-3-3-3-3-3-3-3-0-0-0-0-0-0-0-0-0-0-0-0-0-0-0-0-0-0-0-0-0-0-0-0-|

b |-------------------------------------------------------------------------------------------------|
F#|-------------------------------------------------------------------------------------------------|
D |-------------------------------------------------------------------------------------------------|
A |-------------------------------------------------------------------------------------------------|
E |-5-5-5-5-5-5-5-5-5-5-5-5-5-5-5-5-5-5-5-5-5-5-5-5-4-4-4-4-4-4-4-4-4-4-4-4-4-4-4-4-4-4-4-4-4-4-4-4-|
B |-3-3-3-3-3-3-3-3-3-3-3-3-3-3-3-3-3-3-3-3-3-3-3-3-2-2-2-2-2-2-2-2-2-2-2-2-2-2-2-2-2-2-2-2-2-2-2-2-|

b |-------------------------------------------------------------------------------------------------|
F#|-------------------------------------------------------------------------------------------------|
D |-------------------------------------------------------------------------------------------------|
A |-------------------------------------------------------------------------------------------------|
E |-5-5-5-5-5-5-5-5-5-5-5-5-5-5-5-5-5-5-5-5-5-5-5-5-2-2-2-2-2-2-2-2-2-2-2-2-2-2-2-2-2-2-2-2-2-2-2-2-|
B |-3-3-3-3-3-3-3-3-3-3-3-3-3-3-3-3-3-3-3-3-3-3-3-3-0-0-0-0-0-0-0-0-0-0-0-0-0-0-0-0-0-0-0-0-0-0-0-0-|

(3:28)
[Solo Rhythm]
b |-------------------------------------------------------------------------------------------------|
F#|-------------------------------------------------------------------------------------------------|
D |-------------------------------------------------------------------------------------------------|
A |-5-5-5-5-5-5-5-5-5-5-5-5-5-5-5-5-5-5-5-5-5-5-5-5-4-4-4-4-4-4-4-4-4-4-4-4-4-4-4-4-4-4-4-4-4-4-4-4-|
E |-3-3-3-3-3-3-3-3-3-3-3-3-3-3-3-3-3-3-3-3-3-3-3-3-2-2-2-2-2-2-2-2-2-2-2-2-2-2-2-2-2-2-2-2-2-2-2-2-|
B |-------------------------------------------------------------------------------------------------|

b |-----------------------------------------------------------------------------------------------|
F#|-----------------------------------------------------------------------------------------------|
D |-----------------------------------------------------------------------------------------------|
A |-5-5-5-5-5-5-5-5-5-5-5-5-5-5-5-5-5-5-5-5-5-5-5-5-2----------2----------------------------------|
E |-3-3-3-3-3-3-3-3-3-3-3-3-3-3-3-3-3-3-3-3-3-3-3-3-0--0-0-0-0-0--0-0-0-0-------------------------|
B |-----------------------------------------------------------------------8-7-5-8-7-5-6-5-3-6-5-3-|
                                                       * * * *    * * * * * * * * * * * * * * * *

b |-------------------------------------------------------------------------------------------------|
F#|-------------------------------------------------------------------------------------------------|
D |-------------------------------------------------------------------------------------------------|
A |-5-5-5-5-5-5-5-5-5-5-5-5-5-5-5-5-5-5-5-5-5-5-5-5-4-4-4-4-4-4-4-4-4-4-4-4-4-4-4-4-4-4-4-4-4-4-4-4-|
E |-3-3-3-3-3-3-3-3-3-3-3-3-3-3-3-3-3-3-3-3-3-3-3-3-2-2-2-2-2-2-2-2-2-2-2-2-2-2-2-2-2-2-2-2-2-2-2-2-|
B |-------------------------------------------------------------------------------------------------|

b |-----------------------------------------------------------------------------------------------|
F#|-----------------------------------------------------------------------------------------------|
D |-----------------------------------------------------------------------------------------------|
A |-5-5-5-5-5-5-5-5-5-5-5-5-5-5-5-5-5-5-5-5-5-5-5-5-2----------2----------------------------------|
E |-3-3-3-3-3-3-3-3-3-3-3-3-3-3-3-3-3-3-3-3-3-3-3-3-0--0-0-0-0-0--0-0-0-0-------------------------|
B |-----------------------------------------------------------------------8-7-5-6-5-3-8-7-5-6-5-3-|
                                                       * * * *    * * * * * * * * * * * * * * * *

(Solo Lead)
b |---------------------------------------------------------------------------------------------------------|
F#|---------------------------------------------------------------------------------------------------------|
D |-/13~--8--13--16--16br--~--\--------------3--5--7--/10~--8-8-8~-6-6-6-6~--4-4-4-4-4~--2--1b----~---r--wd-|
A |------------------------------pb5--r--5b-----------------------------------------------------------------|
E |---------------------------------------------------------------------------------------------------------|
B |---------------------------------------------------------------------------------------------------------|

b |--------------------------------------------20-b---r--13~---------------------16-16-16~-20-20-20-/24-24~\|
F#|-----9--10--11-b--r--11~--\---------19--17--------------------------15-15-15~---------------------------\|
D |/10----------------------------/17------------------------14-14-14~-------------------------------------\|
A |--------------------------------------------------------------------------------------------------------\|
E |--------------------------------------------------------------------------------------------------------\|
B |--------------------------------------------------------------------------------------------------------\|

(3:52)
b |------------------------------------------------------------------------------------------------------|
F#|------------------------------------------------------------------------------------------------------|
D |----------------------------------------------------------------------------------------------5-2-----|
A |--------------------------------------------------------------------------------------------------3---|
E |7457457457457457457457-456346346346346346346346-347457457457457457457457-45523523523523523523-------2-|
B |------------------------------------------------------------------------------------------------------|

(4:04)
b |-------------------------------------------------------------------------------------------------|
F#|-------------------------------------------------------------------------------------------------|
D |-------------------------------------------------------------------------------------------------|
A |-------------------------------------------------------------------------------------------------|
E |-3-3-3-3-3-3-3-3-7-7-7-7-0-0-0-0-10-10-10-10-10-10-10-10-10-10-10-10-10-10-10-10-8-8-8-8-8-8-8-8-|
B |-------------------------------------------------------------------------------------------------|

b |--------------------------------------------------------|
F#|--------------------------------------------------------|
D |-12-7-----------12-9-12-9-------------------------------|
A |------9-------------------12-9-12-9---------------------|
E |--------10-7-10---------------------12-9-12-9-----------|
B |----------------------------------------------12-9-12-9-|

b |-------------------------------------------------------------------------------------------------|
F#|-------------------------------------------------------------------------------------------------|
D |-------------------------------------------------------------------------------------------------|
A |-------------------------------------------------------------------------------------------------|
E |-------------------------------------------------------------------------532---------------------|
B |-0-0-0-0-0-0-0-0-0-0-0-0-0-0-0-0-0-0-0-0-0-0-0-0-0-0-0-0-0-0-0-0-532-532-----532-532-532-421-421-|
                                                                    *** *** *** *** *** *** *** ***

(4:16)
b |----------------------------------------------------------------------------|
F#|----------------------------------------------------------------------------|
D |----------------------------------------------------------------------------|
A |----------------------------------------------------------------------------|
E |-4--------------------------------------------------------------------------|
B |-2--------------------------------------------------------------------------|

b |-----------------------------------------------------------------------------------------|
F#|-----------------------------------------------------------------------------------------|
D |-----------------------------------------------------------------------------------------|
A |-----------------------------------------------------------------------------------------|
E |-4--4-4-4-4-4--4--4-4-4-4-4--5-5-5-5-5-5-5--4--4-4-4-4-4--4--4-4-4-4-4--10-9--8--11-10-9-|
B |-2--2-2-2-2-2--2--2-2-2-2-2--3-3-3-3-3-3-3--2--2-2-2-2-2--2--2-2-2-2-2--8--7--6--9--8--7-|
    *  * * * * *  *  * * * * *  * * * * * * *  *  * * * * *  *  * * * * *  *  *  *  *  *  *

b |--------------------------------------------------------------5------------------|
F#|---------------------------------------------------------------5-----------------|
D |----------------------------------------------------------------5----------------|
A |-----------------------------------------------------------------5---------------|
E |4--4-4-4-4-4--4--4-4-4-4-4--5-5-5-5-5-5-5--4--4-4-4-4-4--4--4------2-2-232-2-2-2-|
B |2--2-2-2-2-2--2--2-2-2-2-2--3-3-3-3-3-3-3--2--2-2-2-2-2--2--2------0-0-----0-0-0-|
   *  * * * * *  *  * * * * *  * * * * * * *  *  * * * * *  *    ++++ * *     * * *
                                                                                                      
(4:35)
b |---------------------------------------------------------------------------------------------------|
F#|---------------------------------------------------------------------------------------------------|
D |---------------------------------------------------------------------------------------------------|
A |---------------------------------------------------------------------------------------------------|
E |4--4-4-4-4-4--4--5-5-5-5-5--4-4-4-4--4-4-4-4-4-4-4--4-4-4-4-2--2--2--2--4--4-4-4-4-4--4--4-4-4-4-4-|
B |2--2-2-2-2-2--2--3-3-3-3-3--2-2-2-2--2-2-2-2-2-2-2--2-2-2-2-0--0--0--0--2--2-2-2-2-2--2--2-2-2-2-2-|
   *  * * * * *  *  * * * * *  * * * *  * * * * * * *  * * * * *  *  *  *  *  * * * * *  *  * * * * *

b |----------------------------------------|
F#|----------------------------------------|
D |----------------------------------------|
A |----------------------------------------|
E |5-5-5-5-5-5-5--4---4---4--4--4--4--4--4-|
B |3-3-3-3-3-3-3--2---2---2--2--2--2--2--2-|
   * * * * * * *  *   *   

************************************

| /   slide up
| \   slide down
| h   hammer-on
| p   pull-off
| ~   vibrato
| +   harmonic
| x   Mute note
| b   Bend
| pb  Pre-bend
| br  Bend release
| pbr Pre-bend release
| brb Bend release bend
| *   Palm mute
| wd  Whammy down
| =   Artificial harmonic

************************************

            
            
Suggest correction
Creating personal tab
Creating personal tab
You can edit any tab online and save it as your Personal.

You can edit, replace or remove any tab part or add personal notes – all changes will be seen only by you.

Personal tabs can be accessed anytime from any device, even offline.
Learn more »
comments
print report bad tab
9 comments total. Showing first comments.
0 reply
KilljoyBassist 193 Oct 25, 2015 06:30 PM

Dude this looks fucking badass! I haven't tried playing it yet but it looks spot on! Fucking cheers!

0 reply
Obsimyx 448 Oct 29, 2015 06:59 AM

Thanks, means a lot. Cheers!

0 reply
Whiplash89 110 Jan 24, 2016 03:08 AM

Great job, mate! This is my favourite Fleshgod song!
Any chance you can do Pathfinder as well?

guest
You may want to rate the tab now too:
select rating
Wanna post a correction for this tab? Suggest correction