Oops, an error
Loading. Please wait.

Pathfinder tab

481 views 3 this week
2 commentsread comments
1 2 3 4 5
x 3
add to favorites
×
Save as Personal and add changes to this tab that will be seen only by you. Learn more ›
×
You can save this tab as Personal to edit and correct it or add notes. All changes will be seen only by you. Learn more »
launch autoscroll
font size
0
reset
how to read this tab
guitar tuner
edit
Autoscroll
slow
fast
+/-
esc
set tempo
stop
-------------------------------------------------------------------------------
                             Pathfinder - Fleshgod Apocalypse
-------------------------------------------------------------------------------
Tabbed by: Obsimyx                                           Tuning: B Standard

0:00
b |----------------------------------------------------------------------------------------------------|
F#|----------------------------------------------------------------------------------------------------|
D |----------------------------------------------------------------------------------------------------|
A |--------------------------------------0-5-2---------------------------------------------0-7-5-------|
E |--------5---------9---------12-12-8-8-------6-3-0---------5---------9---------12-12-8-8-------7-5-0-|
B |0-0-0-0---0-0-0-0---0-0-0-0-----------------------0-0-0-0---0-0-0-0---0-0-0-0-----------------------|

b |--------------------------------------------------------------------------------------------|
F#|--------------------------------------------------------------------------------------------|
D |--------------------------------------------------------------------------------------------|
A |--------------------------------------0-5-2-------------------------------------------------|
E |--------5---------9---------12-12-8-8-------6-3-0---------5---------9---------11---------13-|
B |0-0-0-0---0-0-0-0---0-0-0-0-----------------------4-1-0-0---0-0-0-0---0-0-0-0----0-0-0-0----|

0:09
b |----------------------------------------------------------------------------------------------------|
F#|----------------------------------------------------------------------------------------------------|
D |----------------------------------------------------------------------------------------------------|
A |--------------------------------------0-5-2---------------------------------------------0-7-5-------|
E |--------5---------9---------12-12-8-8-------6-3-0---------5---------9---------12-12-8-8-------7-5-0-|
B |0-0-0-0---0-0-0-0---0-0-0-0-----------------------0-0-0-0---0-0-0-0---0-0-0-0-----------------------|

b |-------------------------------------------------------------------------------------------------------|
F#|-------------------------------------------------------------------------------------------------------|
D |-------------------------------------------------------------------------------------------------------|
A |--------------------------------------0-5-2------------------------------------------------------------|
E |--------5---------9---------12-12-8-8-------6-3-0---------5---------9---------11---------13---------11-|
B |0-0-0-0---0-0-0-0---0-0-0-0-----------------------4-1-0-0---0-0-0-0---0-0-0-0----0-0-0-0----0-0-0-0----|

b |----------------------------------------------------------------------------------------------------|
F#|----------------------------------------------------------------------------------------------------|
D |----------------------------------------------------------------------------------------------------|
A |--------------------------------------0-5-2---------------------------------------------0-7-5-------|
E |--------5---------9---------12-12-8-8-------6-3-0---------5---------9---------12-12-8-8-------7-5-0-|
B |0-0-0-0---0-0-0-0---0-0-0-0-----------------------0-0-0-0---0-0-0-0---0-0-0-0-----------------------|

b |-----------------------------------------------------------------------------------------|
F#|-----------------------------------------------------------------------------------------|
D |-----------------------------------------------------------------------------------------|
A |--------------------------------------0-5-2----------------------------------------------|
E |--------5---------9---------12-12-8-8-------6-3-0---------5---------9---------11---------|
B |0-0-0-0---0-0-0-0---0-0-0-0-----------------------4-1-0-0---0-0-0-0---0-0-0-0----0-0-0-0-|

                        |0:28
b |---------------------|-----------------------------------------------------------------------------------|
F#|---------------------|-----------------------------------------------------------------------------------|
D |---------------------|-----------------------------------------------------------------------------------|
A |---16-15-13----------|-----------------------------------------------------------------------------------|
E |13----------16-15-13-|-------------------------------------------------5-5-5--8-8-8--5-5-5---------5-5-5-|
B |---------------------|1-1-1--5-5-5--3-3-3--6-6-6--3-3-3--6-6-6--5-5-5-----------------------8-8-8--------|
                         * * *  * * *  * * *  * * *  * * *  * * *  * * *  * * *  * * *  * * *  * * *  * * *

b |--------------------------------------------------------------------------------------------------------|
F#|--------------------------------------------------------------------------------------------------------|
D |--------------------------------------------------------------------------------------------------------|
A |------------------------------------------------------------------------------------8-8-8--5-5-5--------|
E |-------------------------------------------------6-6-6--3-3-3---------8-8-8--5-5-5----------------------|
B |8-8-8--5-5-5--7-7-7--1-1-1--5-5-5--3-3-3--6-6-6----------------5-5-5------------------------------8-8-8-|
   * * *  * * *  * * *  * * *  * * *  * * *  * * *  * * *  * * *  * * *  * * *  * * *  * * *  * * *  * * *

                                    |0:37
b |---------------------------------|----------------------------------------------------------------------|
F#|---------------------------------|----------------------------------------------------------------------|
D |---------------------------------|----------------------------------------------------------------------|
A |---------------------------------|----------------------------------------------------------------------|
E |----------------------------5-5-5|----------------------6-6-6--3-3-3--5-5-5--5-5-5---------8-8-8--5-5-5-|
B |5-5-5--7-7-7--3-3-3--6-6-6-------|-5-5-5--3-3-3--6-6-6------------------------------5-5-5---------------|
   * * *  * * *  * * *  * * *  * * *  * * *  * * *  * * *         * * *         * * *  * * *  * * *  * * *

b |--------------------------------------------------------------------------------------------------------|
F#|--------------------------------------------------------------------------------------------------------|
D |--------------------------------------------------------------------------------------------------------|
A |--------------------------------------------------------------------------------------------------8-8-8-|
E |-------5-5-5---------------------------------------------------6-6-6--3-3-3---------8-8-8--5-5-5--------|
B |8-8-8---------8-8-8--5-5-5--7-7-7--1-1-1--5-5-5--3-3-3--6-6-6----------------5-5-5----------------------|
   * * *  * * *  * * *  * * *  * * *  * * *  * * *  * * *  * * *  * * *  * * *  * * *  * * *  * * *  * * *

b |--------------------------------------------------------------------------------------------------------|
F#|--------------------------------------------------------------------------------------------------------|
D |--------------------------------------------------------------------------------------------------------|
A |5-5-5-------------------------------------------------------------------------------5-5-5--5-5-5--------|
E |------------------------------------------5-5-5-----------------------6-6-6--3-3-3----------------5-5-5-|
B |-------8-8-8--5-5-5--7-7-7--3-3-3--6-6-6---------5-5-5--3-3-3--6-6-6------------------------------------|
   * * *  * * *  * * *  * * *  * * *  * * *  * * *  * * *  * * *  * * *  * * *  * * *  * * *  * * *

b |--------------------------------------------------------------------------------------------------------|
F#|--------------------------------------------------------------------------------------------------------|
D |--------------------------------------------------------------------------------------------------------|
A |8-8-8--5-5-5---------5-5-5---------------------------------------------------6-6-6--3-3-3---------8-8-8-|
E |--------------8-8-8---------8-8-8--5-5-5--7-7-7--1-1-1--5-5-5--3-3-3--6-6-6----------------5-5-5--------|
B |--------------------------------------------------------------------------------------------------------|
   * * *  * * *  * * *  * * *  * * *  * * *  * * *  * * *  * * *  * * *  * * *  * * *  * * *  * * *  * * *

b |--------------------------------------------------------------|
F#|--------------------------------------------------------------|
D |-------8-8-8--5-5-5-------------------------------------------|
A |5-5-5---------------------------------------------------5-5-5-|
E |---------------------8-8-8--5-5-5--7-7-7--3-3-3--6-6-6--------|
B |--------------------------------------------------------------|
   * * *  * * *  * * *  * * *  * * *  * * *  * * *  * * *  * * *

0:56
b |------------------------------------------------------------------------------------------------------|
F#|------------------------------------------------------------------------------------------------------|
D |------------------------------------------------------------------------------------------------------|
A |------------------------------------------------------------------------------8-7-5-------------------|
E |------0-5-9-------0-4-7-------0-5-9-------0-4-7-------0-5-9-------------5-7-8-------8-7-5-0-5-9-------|
B |0-0-0-------0-0-0-------0-0-0-------0-0-0-------0-0-0-------0-0-0-5-7-8-------------------------0-0-0-|
                                                                     * * * * * * * * * * * *

b |---------------------------------------------------------------------------------------------------|
F#|---------------------------------------------------------------------------------------------------|
D |---------------------------------------------------------------------------------------------------|
A |---------------------------------------------------------------------------------------------------|
E |0-4-7-------0-5-9-------0-4-7-------0-5-9-------0-4-7-------0-5-9-------0-10-14-------0-9-12-------|
B |------0-0-0-------0-0-0-------0-0-0-------0-0-0-------0-0-0-------0-0-0---------0-0-0--------0-0-0-|

b |--------------------------------------------------------------------------------------------------------|
F#|--------------------------------------------------------------------------------------------------------|
D |--------------------------------------------------------------------------------------------------------|
A |-----------------------------------------------------------------------------13-15----------------------|
E |0-10-14-------0-9-12-------0-10-14----------------12-14-15-14-12----12-14-15-------0-10-14-------0-9-12-|
B |--------0-0-0--------0-0-0---------0-0-0-12-14-15----------------15------------------------0-0-0--------|
                                            *  *  *  *  *  *  *  *  *  *  *  *  *  *

b |-----------------------------------------------------------|
F#|-----------------------------------------------------------|
D |-----------------------------------------------------------|
A |-----------------------------------------------------------|
E |------0-10-14-------0-9-12-------0-8-12-------0-7-10-------|
B |0-0-0---------0-0-0--------0-0-0--------0-0-0--------0-0-0-|

1:14
b |--------------------------------------------------------------------------------------------------------|
F#|--------------------------------------------------------------------------------------------------------|
D |--------------------------------------------------------------------------------------------------------|
A |--------------------------------------------------------------------------------------------------------|
E |-------------------------------------------------5-5-5--8-8-8--5-5-5---------5-5-5----------------------|
B |1-1-1--5-5-5--3-3-3--6-6-6--3-3-3--6-6-6--5-5-5-----------------------8-8-8---------8-8-8--5-5-5--7-7-7-|
   * * *  * * *  * * *  * * *  * * *  * * *  * * *  * * *  * * *  * * *  * * *  * * *  * * *  * * *  * * *

b |--------------------------------------------------------------------------------------------------------|
F#|--------------------------------------------------------------------------------------------------------|
D |--------------------------------------------------------------------------------------------------------|
A |---------------------------------------------------------------8-8-8--5-5-5-----------------------------|
E |----------------------------6-6-6--3-3-3---------8-8-8--5-5-5-------------------------------------------|
B |1-1-1--5-5-5--3-3-3--6-6-6----------------5-5-5------------------------------8-8-8--5-5-5--7-7-7--3-3-3-|
   * * *  * * *  * * *  * * *  * * *  * * *  * * *  * * *  * * *  * * *  * * *  * * *  * * *  * * *  * * *

b |------------------------------------------------------------------------------------------------|
F#|------------------------------------------------------------------------------------------------|
D |------------------------------------------------------------------------------------------------|
A |------------------------------------------------------------------------------------------------|
E |-------5-5-5-----------------------8-8-8--5-5-5--7-7-7--7-7-7---------10-10-10--7-7-7-----------|
B |6-6-6---------7-7-7--5-5-5--8-8-8------------------------------7-7-7-------------------10-10-10-|
   * * *  * * *  * * *  * * *  * * *         * * *         * * *  * * *  *  *  *   * * *  *  *  *

b |----------------------------------------------------------------------------------------------------------|
F#|----------------------------------------------------------------------------------------------------------|
D |----------------------------------------------------------------------------------------------------------|
A |-------------------------------------------------------------------------------------------------10-10-10-|
E |7-7-7------------------------------------------------------8-8-8--5-5-5---------10-10-10--7-7-7-----------|
B |-------10-10-10--7-7-7--9-9-9--3-3-3--7-7-7--5-5-5--8-8-8----------------7-7-7----------------------------|
   * * *  *  *  *   * * *  * * *  * * *  * * *  * * *  * * *  * * *  * * *  * * *  *  *  *   * * *  *  *  *

                                        |1:33
b |-------------------------------------|-------------------------------------------------------------------|
F#|-------------------------------------|-------------------------------------------------------------------|
D |-------------------------------------|-------------------------------------------------------------------|
A |7-7-7--------------------------------|-------------------------------------------------------------------|
E |-------------------------------------|---------3-7---------3-7-3-7-3-7-3-7-4-7-0---------4-7-4-7-4-7-4-7-|
B |-------10-10-10--7-7-7--9-9-9--5-5-5-|-0-0-0-0-----0-0-0-0-----------------------4-4-4-4-----------------|
   * * *  *  *  *   * * *  * * *  * * *   * * * *     * * * *                       * * * *

b |--------------------------------------------------------------------------------------------------|
F#|--------------------------------------------------------------------------------------------------|
D |--------------------------------------------------------------------------------------------------|
A |--------------------------------------------------------------------------------------------------|
E |--------4-7-0-------------3-7---------3-7-3-7-3-7-3-7-4-7-0---------4-7-4-7-4-7-4-7---------4-7-0-|
B |4-4-4-4-------0-0-0-0-0-0-----0-0-0-0-----------------------4-4-4-4-----------------4-4-4-4-------|
   * * * *       * * * * * *     * * * *                       * * * *                 * * * *

b |---------------------------------------------------------------------------------------------------|
F#|---------------------------------------------------------------------------------------------------|
D |---------------------------------------------------------------------------------------------------|
A |---------------------------------------------------------------------------------------------------|
E |--------------------5-9---------5-9-5-9-5-9-5-9-6-9-0-------------7-10---------7-10-7-10-7-10-7-10-|
B |0-0-0-0-0-0-0-0-0-0-----5-5-5-5-----------------------7-7-7-7-7-7------7-7-7-7---------------------|
   * * * * * * * * * *     * * * *                       * * * * * *      * * * *

b |--------------------------------------------------------------------------------------------------|
F#|--------------------------------------------------------------------------------------------------|
D |--------------------------------------------------------------------------------------------------|
A |--------------------------------------------------------------------------------------------------|
E |------------8-12---------8-12-8-12-8-12-8-12-------------8-12-------------10-14-10-14-10-14-10-14-|
B |8-8-8-8-8-8------8-8-8-8---------------------8-8-8-8-8-8------10-10-10-10-------------------------|
   * * * * * *      * * * *                     * * * * * *      *  *  *  *

                              |1:51
b |---------------------------|----------------------------------------------------------------------------|
F#|---------------------------|----------------------------------------------------------------------------|
D |---------------------------|----------------------------------------------------------------------------|
A |---------------------------|----------------------------------------------------------------------------|
E |-----------10-14-----------|---------5-9-0---5------------5-9-0---------5-9-0--------------------7-10-0-|
B |10-10-10-10-----10-10-10-10|-0--0--0-------0---0--0-0-0-0-------0-0-0-0-------0-0-0-0-0--0-0-0-0--------|
   *  *  *  *      *  *  *  *      *  *       *      * * * *       * * * *       * * * *    * * * *

b |----------------------------------------------------------------------------------------------------------|
F#|----------------------------------------------------------------------------------------------------------|
D |----------------------------------------------------------------------------------------------------------|
A |----------------------------------------------------------------------------------------------------------|
E |--------7-10-0------------------------------------------------4-7-0---------4-7-0--------------------3-7-0|
B |0-0-0-0---------0-0-0--5-5-5--1-1-1--6-6-6--3-3-3--0--0-0-0-0-------0-0-0-0-------0-0-0-0-0--0-0-0-0------|
   * * * *         * * *  * * *  * * *  * * *  * * *     * * * *       * * * *       * * * *    * * * *

b |------------------------------------------------------------------------------------------------------|
F#|------------------------------------------------------------------------------------------------------|
D |------------------------------------------------------------------------------------------------------|
A |------------------------------------------3-----------------------------------------------------------|
E |---------3-7-0----------------3-----3--6----------------5-9-0---------5-9-0------------7-10-0---------|
B |-0-0-0-0-------0-0-0-6--3--6-----6-----------0--0-0-0-0-------0-0-0-0-------0-0-0-0-0---------0-0-0-0-|
    * * * *       * * * *  *  *  *  *  *  *  *     * * * *       * * * *       * * * *           * * * *

b |-------------------------------------------------------------------------------------|
F#|-------------------------------------------------------------------------------------|
D |-------------------------------------------------------------------------------------|
A |-------------------------------------------------------------------------------------|
E |7-10-0--------------------3-7-0---------3-7-0--------------------2-5-0---------2-5-0-|
B |-------0-0-0-0-0--0-0-0-0-------0-0-0-0-------0-0-0-0-0--0-0-0-0-------0-0-0-0-------|
          * * * *    * * * *       * * * *       * * * *    * * * *       * * * *

                                |2:12
b |-----------------------------|----------------------------------------------------------------------------|
F#|-----------------------------|----------------------------------------------------------------------------|
D |-----------------------------|----------------------------------------------------------------------------|
A |---------------------------3-|----------------------------------------------------------------------------|
E |---------------3-----3--6----|----------------------------------------------------------------------------|
B |0-0-0-6--3--6-----6----------|0-0-0--0-0-0--0-0-0--0-0-0--0-0-0--0-0-0--0-0-0--0-0-0--0-0-0--0-0-0--0-0-0-|
   * * * *  *  *  *  *  *  *  *  * * *  * * *  * * *  * * *  * * *  * * *  * * *  * * *  * * *  * * *  * * *

b |----------------------------------------------------------------------------------------------------|
F#|----------------------------------------------------------------------------------------------------|
D |----------------------------------------------------------------------------------------------------|
A |----------------------------------------------------------------------------------------------------|
E |----------------------------------------------------------------------------------------------------|
B |0-0-0--0-0-0--6-6-6--6-6-6--6-6-6--6-6-6--0-0-0--0-0-0--0-0-0--0-0-0--6-6-6--3-3-3--10-10-10--7-7-7-|
   * * *  * * *  * * *  * * *  * * *  * * *  * * *  * * *  * * *  * * *  * * *  * * *  *  *  *   * * *

b |--------------------------------------------------------------------------------------------------------|
F#|--------------------------------------------------------------------------------------------------------|
D |--------------------------------------------------------------------------------------------------------|
A |--------------------------------------------------------------------------------------------------------|
E |--------------------------------------------------------------------------------------------------------|
B |1-1-1--8-8-8--8-8-8--5-5-5--5-5-5--1-1-1--1-1-1--6-6-6--0-0-0--0-0-0--0-0-0--0-0-0--0-0-0--0-0-0--0-0-0-|
   * * *  * * *  * * *  * * *  * * *  * * *  * * *  * * *  * * *  * * *  * * *  * * *  * * *  * * *  * * *

                |2:24
b |-------------|------------------------------------------------------------------------------------------|
F#|-------------|------------------------------------------------------------------------------------------|
D |-------------|------------------------------------------------------------------------------------------|
A |-------------|------------------------------------------------------------------------------------------|
E |-------------|------------------------------------------------------------------------------------------|
B |0-0-0--0-0-0-|0-0-0--0-0-0--0-0-0--0-0-0--8-8-8--8-8-8--8-8-8--8-8-8--2-2-2--2-2-2--2-2-2--2-2-2--8-8-8-|
   * * *  * * *  * * *  * * *  * * *  * * *  * * *  * * *  * * *  * * *  * * *  * * *  * * *  * * *  * * *

                                                            |2:30
b |---------------------------------------------------------|------------------------------------------------|
F#|---------------------------------------------------------|------------------------------------------------|
D |---------------------------------------------------------|------------------------------------------------|
A |---------------------------------------------------------|------------------------------------------------|
E |---------------------------------------------------------|------------------------------------------------|
B |5-5-5--12-12-12--9-9-9--3-3-3--10-10-10--10-10-10--7-7-7-|0-0-0--0-0-0--0-0-0--0-0-0--0-0-0--0-0-0--0-0-0-|
   * * *  *  *  *   * * *  * * *  *  *  *   *  *  *   * * *  * * *  * * *  * * *  * * *  * * *  * * *  * * *

b |--------------------------------------------------------------------------------------------------------|
F#|--------------------------------------------------------------------------------------------------------|
D |--------------------------------------------------------------------------------------------------------|
A |--------------------------------------------------------------------------------------------------------|
E |-----------------------------------6-6-6--3-3-3--6-6-6--------------------------------------------------|
B |0-0-0--0-0-0--0-0-0--0-0-0--0-0-0-----------------------6-6-6--0-0-0--0-0-0--0-0-0--0-0-0--0-0-0--0-0-0-|
   * * *  * * *  * * *  * * *  * * *  * * *  * * *  * * *  * * *  * * *  * * *  * * *  * * *  * * *  * * *

b |------------------------------------------------------------------------------------------------|
F#|------------------------------------------------------------------------------------------------|
D |------------------------------------------------------------------------------------------------|
A |---------------------------------------------------------------3--------------------------------|
E |---------------------------------------------------3-----3--6-----------------------------------|
B |0-0-0--0-0-0--0-0-0--0-0-0--0-0-0--0-0-0--6--3--6-----6-----------0--0--0----0--0--0----0--0--0-|
   * * *  * * *  * * *  * * *  * * *  * * *  *  *  *  *  *  *  *  *  *  *       *  *       *  *

b |----------------------------------------------------------------------------------------------------|
F#|----------------------------------------------------------------------------------------------------|
D |----------------------------------------------------------------------------------------------------|
A |----------------------------------------------------------------------------------------------------|
E |----------------------------------------------------------------------------------------------------|
B |0--0--0----3--5--7----3--5--7----3--5--7----3--5--7----7--9--10----7--9--10----7--9--10----7--9--10-|
   *  *       *  *       *  *       *  *       *  *       *  *        *  *        *  *        *  *

b |------------------------------------------------------------------------------------------------------|
F#|------------------------------------------------------------------------------------------------------|
D |------------------------------------------------------------------------------------------------------|
A |-------------------------------------------------------------------------------------------------7--9-|
E |---------------------------------------------------------------------------------------7--10--9-------|
B |-7--9--10----7--9--10----7--9--10----7--9--10----7--9--9----6--8--9----6--8--7--9--10-----------------|
    *  *        *  *        *  *        *  *        *  *       *  *       *  *  *  *  *   *  *   *  *  *

2:50
Solo 1 Rhythm
b |--------------------------------------------------------------------------------------------------------|
F#|--------------------------------------------------------------------------------------------------------|
D |--------------------------------------------------------------------------------------------------------|
A |--------------------------------------------------------------------------------------------------------|
E |--------------------------------------------------------------------------------------------------------|
B |0-0-0--0-0-0--0-0-0--0-0-0--0-0-0--0-0-0--0-0-0--0-0-0--0-0-0--0-0-0--0-0-0--0-0-0--0-0-0--6-6-6--6-6-6-|
   * * *  * * *  * * *  * * *  * * *  * * *  * * *  * * *  * * *  * * *  * * *  * * *  * * *  * * *  * * *

b |----------------------------------------------------------------------------------------------------|
F#|----------------------------------------------------------------------------------------------------|
D |----------------------------------------------------------------------------------------------------|
A |----------------------------------------------------------------------------------------------------|
E |----------------------------------------------------------------------------------------------------|
B |6-6-6--6-6-6--0-0-0--0-0-0--0-0-0--0-0-0--6-6-6--3-3-3--10-10-10--7-7-7--1-1-1--8-8-8--8-8-8--5-5-5-|
   * * *  * * *  * * *  * * *  * * *  * * *  * * *  * * *  *  *  *   * * *  * * *  * * *  * * *  * * *

b |--------------------------------------------------------------------------------------------------------|
F#|--------------------------------------------------------------------------------------------------------|
D |--------------------------------------------------------------------------------------------------------|
A |--------------------------------------------------------------------------------------------------------|
E |--------------------------------------------------------------------------------------------------------|
B |5-5-5--1-1-1--1-1-1--6-6-6--0-0-0--0-0-0--0-0-0--0-0-0--0-0-0--0-0-0--0-0-0--0-0-0--0-0-0--0-0-0--0-0-0-|
   * * *  * * *  * * *  * * *  * * *  * * *  * * *  * * *  * * *  * * *  * * *  * * *  * * *  * * *  * * *

b |----------------------------------------------------------------------------------------------------|
F#|----------------------------------------------------------------------------------------------------|
D |----------------------------------------------------------------------------------------------------|
A |----------------------------------------------------------------------------------------------------|
E |----------------------------------------------------------------------------------------------------|
B |0-0-0--0-0-0--8-8-8--8-8-8--8-8-8--8-8-8--2-2-2--2-2-2--2-2-2--2-2-2--8-8-8--5-5-5--12-12-12--9-9-9-|
   * * *  * * *  * * *  * * *  * * *  * * *  * * *  * * *  * * *  * * *  * * *  * * *  *  *  *   * * *

b |---------------------------------|
F#|---------------------------------|
D |---------------------------------|
A |---------------------------------|
E |---------------------------------|
B |3-3-3--10-10-10--10-10-10--7-7-7-|
   * * *  *  *  *   *  *  *   * * *

Solo 1 Lead
b |----------------------------------------------------------------------------------------------------------|
F#|/18~--18--20--21--20b---pb19rb-19~----/22--22--19--19--12--12--8--8--7--7----------------------------/18~-|
D |---------------------------------------------------------------------------8------------------12--14------|
A |------------------------------------------------------------------------------------------12--------------|
E |--------------------------------------------------------------------------------------14------------------|
B |------------------------------------------------------------------------------12--15----------------------|

b |-----------------------------------------------------------------------------------|
F#|17----19----20-----------21b------br-20--22~---/24--24--19--19---------------------|
D |----------------------------------------------------------------16--16--13--13~-\--|
A |-----------------------------------------------------------------------------------|
E |-----------------------------------------------------------------------------------|
B |-----------------------------------------------------------------------------------|

3:07
b |--------------------------------------------------------------------------------------------------------|
F#|--------------------------------------------------------------------------------------------------------|
D |--------------------------------------------------------------------------------------------------------|
A |--------------------------------------------------------------------------------------------------------|
E |-------------------------------------------------5-5-5--8-8-8--5-5-5---------5-5-5----------------------|
B |1-1-1--5-5-5--3-3-3--6-6-6--3-3-3--6-6-6--5-5-5-----------------------8-8-8---------8-8-8--5-5-5--7-7-7-|
   * * *  * * *  * * *  * * *  * * *  * * *  * * *  * * *  * * *  * * *  * * *  * * *  * * *  * * *  * * *

                                                   |3:14
b |------------------------------------------------|-------------------------------------------------------|
F#|------------------------------------------------|-------------------------------------------------------|
D |------------------------------------------------|-------------------------------------------------------|
A |------------------------------------------------|--------------8-8-8--5-5-5-----------------------------|
E |----------------------------6-6-6--3-3-3--------|8-8-8--5-5-5-------------------------------------------|
B |1-1-1--5-5-5--3-3-3--6-6-6----------------5-5-5-|----------------------------8-8-8--5-5-5--7-7-7--3-3-3-|
   * * *  * * *  * * *  * * *  * * *  * * *  * * *  * * *  * * *  * * *  * * *  * * *  * * *  * * *  * * *

b |-------------------------------------------------------------------------------------------------------|
F#|-------------------------------------------------------------------------------------------------------|
D |-------------------------------------------------------------------------------------------------------|
A |-------------------------------------------------------------------------------------------------------|
E |-------5-5-5-----------------------8-8-8--5-5-5--7-7-7--7-7-7---------10-10-10--7-7-7------------7-7-7-|
B |6-6-6---------7-7-7--5-5-5--8-8-8------------------------------7-7-7-------------------10-10-10--------|
   * * *  * * *  * * *  * * *  * * *         * * *         * * *  * * *  *  *  *   * * *  *  *  *   * * *

b |----------------------------------------------------------------------------------------------------------|
F#|----------------------------------------------------------------------------------------------------------|
D |----------------------------------------------------------------------------------------------------------|
A |------------------------------------------------------------------------------------------10-10-10--7-7-7-|
E |----------------------------------------------------8-8-8--5-5-5---------10-10-10--7-7-7------------------|
B |10-10-10--7-7-7--9-9-9--3-3-3--7-7-7--5-5-5--8-8-8----------------7-7-7-----------------------------------|
   *  *  *   * * *  * * *  * * *  * * *  * * *  * * *  * * *  * * *  * * *  *  *  *   * * *  *  *  *   * * *

                                 |3:27
b |------------------------------|-----------------------------------------------------------------------|
F#|------------------------------|-----------------------------------------------------------------------|
D |------------------------------|-----------------------------------------------------------------------|
A |------------------------------|-----------------------------------------------------------------------|
E |------------------------------|--------3-7---------3-7-3-7-3-7-3-7-4-7-0----------4-7-4-7-4-7---------|
B |10-10-10--7-7-7--9-9-9--5-5-5-|0-0-0-0-----0-0-0-0------------------------4-4-4-4-------------4-4-4-4-|
   *  *  *   * * *  * * *  * * *  * * * *     * * * *                        * * * *             * * * *

b |---------------------------------------------------------------------------------------------|
F#|---------------------------------------------------------------------------------------------|
D |---------------------------------------------------------------------------------------------|
A |---------------------------------------------------------------------------------------------|
E |4-7-0--------------3-7---------3-7-3-7-3-7-3-7-4-7-0----------4-7-4-7-4-7-4-7---------4-7-0--|
B |-------0-0-0-0-0-0-----0-0-0-0------------------------4-4-4-4-----------------4-4-4-4--------|
          * * * * * *     * * * *                        * * * *                 * * * *

b |----------------------------------------------------------------------------------------------------|
F#|----------------------------------------------------------------------------------------------------|
D |----------------------------------------------------------------------------------------------------|
A |----------------------------------------------------------------------------------------------------|
E |--------------------5-9---------5-9-5-9-5-9-5-9-6-9-0--------------7-10---------7-10-7-10-7-10-7-10-|
B |0-0-0-0-0-0-0-0-0-0-----5-5-5-5------------------------7-7-7-7-7-7------7-7-7-7---------------------|
   * * * * * * * * * *     * * * *                        * * * * * *      * * * *

b |---------------------------------------------------------------------------------------------------|
F#|---------------------------------------------------------------------------------------------------|
D |---------------------------------------------------------------------------------------------------|
A |---------------------------------------------------------------------------------------------------|
E |------------8-12---------8-12-8-12-8-12-8-12-------------8-12-------------10-14-10-14-10-14-10-14--|
B |8-8-8-8-8-8------8-8-8-8---------------------8-8-8-8-8-8------10-10-10-10--------------------------|
   * * * * * *      * * * *                     * * * * * *      *  *  *  *

b |------------------------------|
F#|------------------------------|
D |------------------------------|
A |------------------------------|
E |------------10-14-------------|
B |10-10-10-10-------10-10-10-10-|
   *  *  *  *        *  *  *  *

3:46
Solo 2 Rhythm
b |-----------------------------------------------------------------------|
F#|-----------------------------------------------------------------------|
D |-----------------------------------------------------------------------|
A |-----------------------------------------------------------------------|
E |--------3-7---------3-7-3-7-3-7-3-7-4-7-0----------4-7-4-7-4-7---------|
B |0-0-0-0-----0-0-0-0------------------------4-4-4-4-------------4-4-4-4-|
   * * * *     * * * *                        * * * *             * * * *

b |---------------------------------------------------------------------------------------------|
F#|---------------------------------------------------------------------------------------------|
D |---------------------------------------------------------------------------------------------|
A |---------------------------------------------------------------------------------------------|
E |4-7-0--------------3-7---------3-7-3-7-3-7-3-7-4-7-0----------4-7-4-7-4-7-4-7---------4-7-0--|
B |-------0-0-0-0-0-0-----0-0-0-0------------------------4-4-4-4-----------------4-4-4-4--------|
          * * * * * *     * * * *                        * * * *                 * * * *

b |----------------------------------------------------------------------------------------------------|
F#|----------------------------------------------------------------------------------------------------|
D |----------------------------------------------------------------------------------------------------|
A |----------------------------------------------------------------------------------------------------|
E |--------------------5-9---------5-9-5-9-5-9-5-9-6-9-0--------------7-10---------7-10-7-10-7-10-7-10-|
B |0-0-0-0-0-0-0-0-0-0-----5-5-5-5------------------------7-7-7-7-7-7------7-7-7-7---------------------|
   * * * * * * * * * *     * * * *                        * * * * * *      * * * *

b |---------------------------------------------------------------------------------------------------|
F#|---------------------------------------------------------------------------------------------------|
D |---------------------------------------------------------------------------------------------------|
A |---------------------------------------------------------------------------------------------------|
E |------------8-12---------8-12-8-12-8-12-8-12-------------8-12-------------10-14-10-14-10-14-10-14--|
B |8-8-8-8-8-8------8-8-8-8---------------------8-8-8-8-8-8------10-10-10-10--------------------------|
   * * * * * *      * * * *                     * * * * * *      *  *  *  *

b |------------------------------|
F#|------------------------------|
D |------------------------------|
A |------------------------------|
E |------------10-14-------------|
B |10-10-10-10-------10-10-10-10-|
   *  *  *  *        *  *  *  *

Solo 2 Lead
b |------------------------------------/11--11--4--4--2--2--------------------------------|
F#|/12~----16--16~----12---/15---12\-----------------------/14b--14--14b~--12\--/13~--12~-|
D |---------------------------------------------------------------------------------------|
A |---------------------------------------------------------------------------------------|
E |---------------------------------------------------------------------------------------|
B |---------------------------------------------------------------------------------------|

b |-------------------------------------------------------------------------------12-----------|
F#|12---12\10--10--10--10--10\8--8--8~--/10--10~--7--9-~------------------------------12-14~-\-|
D |-------------------------------------/11--11~--8--10~-------15--12/14~----/16---------------|
A |-------------------------------------------------------/12----------------------------------|
E |--------------------------------------------------------------------------------------------|
B |--------------------------------------------------------------------------------------------|

b |/17--20--18-18~-----------------/24~-----\-|
F#|-----------------------------11----------\-|
D |-------------------------12--------------\-|
A |---------------------11------------------\-|
E |-----------------12----------------------\-|
B |-----------------------------------------\-|

4:05
b |----------------------------------------------------------------------------------------------------|
F#|----------------------------------------------------------------------------------------------------|
D |----------------------------------------------------------------------------------------------------|
A |--------------------------------------0-5-2---------------------------------------------0-7-5-------|
E |--------5---------9---------12-12-8-8-------6-3-0---------5---------9---------12-12-8-8-------7-5-0-|
B |0-0-0-0---0-0-0-0---0-0-0-0-----------------------0-0-0-0---0-0-0-0---0-0-0-0-----------------------|

b |-------------------------------------------------------------------------------------------------------|
F#|-------------------------------------------------------------------------------------------------------|
D |-------------------------------------------------------------------------------------------------------|
A |--------------------------------------0-5-2------------------------------------------------------------|
E |--------5---------9---------12-12-8-8-------6-3-0---------5---------9---------11---------13---------11-|
B |0-0-0-0---0-0-0-0---0-0-0-0-----------------------4-1-0-0---0-0-0-0---0-0-0-0----0-0-0-0----0-0-0-0----|

b |----------------------------------------------------------------------------------------------------|
F#|----------------------------------------------------------------------------------------------------|
D |----------------------------------------------------------------------------------------------------|
A |--------------------------------------0-5-2---------------------------------------------0-7-5-------|
E |--------5---------9---------12-12-8-8-------6-3-0---------5---------9---------12-12-8-8-------7-5-0-|
B |0-0-0-0---0-0-0-0---0-0-0-0-----------------------0-0-0-0---0-0-0-0---0-0-0-0-----------------------|

b |-----------------------------------------------------------------------------------------|
F#|-----------------------------------------------------------------------------------------|
D |-----------------------------------------------------------------------------------------|
A |--------------------------------------0-5-2----------------------------------------------|
E |--------5---------9---------12-12-8-8-------6-3-0---------5---------9---------11---------|
B |0-0-0-0---0-0-0-0---0-0-0-0-----------------------4-1-0-0---0-0-0-0---0-0-0-0----0-0-0-0-|

                        |4:24
b |---------------------|-----------------------------------------------------------------------------------|
F#|---------------------|-----------------------------------------------------------------------------------|
D |---------------------|-----------------------------------------------------------------------------------|
A |---16-15-13----------|------------------------0-5-2--------------------------0-7-5-----------------------|
E |13----------16-15-13-|-----5-----9-----12---8-------6-3-0-----5-----9-----12-------7-5-0-----5-----7-----|
B |---------------------|-----3-----7-----10---6-----------------3-----7-----10-----------------3-----5-----|

                            |4:32
b |-------------------------|-----------------------|
F#|-------------------------|-----------------------|
D |-------------------------|-----------------------|
A |-------0-5-2-------------|-----------------------|
E |12---8-------6-3-0-------|--5-----9-----11----13-|
B |10---6-------------4-1-0-|--3-----7-----9-----11-|

************************************

| /   slide up
| \   slide down
| h   hammer-on
| p   pull-off
| ~   vibrato
| +   harmonic
| x   Mute note
| b   Bend
| pb  Pre-bend
| br  Bend release
| pbr Pre-bend release
| brb Bend release bend
| *   Palm mute

************************************

            
            
Suggest correction
Creating personal tab
Creating personal tab
You can edit any tab online and save it as your Personal.

You can edit, replace or remove any tab part or add personal notes – all changes will be seen only by you.

Personal tabs can be accessed anytime from any device, even offline.
Learn more »
Give kudos to tab author, rate the tab!
1 2 3 4 5
comments
print report bad tab
2 comments total.
0 reply
Whiplash89 110 May 03, 2016 09:37 AM

Impressive!
Well done. You rock, sir!

guest
You may want to rate the tab now too:
select rating
Wanna post a correction for this tab? Suggest correction