Oops, an error
Loading. Please wait.

The Forsaking Bass Tab

version 1
version 1

Whole song

Interactive

1,784 views 1 this week
no commentswrite comment
1 2 3 4 5
2 more votes to show rating
add to favorites
launch autoscroll
font size
0
reset
guitar tuner
Autoscroll
slow
fast
+/-
esc
set tempo
stop
Help us to improve Ultimate-Guitar.com Take our survey!
×
Author
Difficulty
Tuning
intermediate
B E A D F# B
Tabbed by: 6METAL6BASSIST6

E-mail: petergriffinav@gmail.com

Tuning: BEADG

Re-tabbed.

G|----------------------------------------------------------------|.
D|----------------------------------------------------------------|.
A|----------------------------------------------------------------|.
E|0---0---0---0---0---0---0---0---0---0---0---0---0---0---0-------|.
B|----------------------------------------------------------------|.
                                                                   .
G|----------------------------------------------------------------|.
D|----------------------------------------------------------------|.
A|----------------------------------------------------------------|.
E|----------------------------------------------------------------|.
B|0---0---0---0---0---0---0---0---0---0---0---0---0---0---0-------|.
                                                                   . x2
G|----------------------------------------------------------------|.
D|----------------------------------------------------------------|.
A|----------------------------------------------------------------|.
E|3---3---3---3---3---3---3---3---3---3---3---3---3---3---3-------|.
B|----------------------------------------------------------------|.
                                                                   .
G|----------------------------------------------------------------|.
D|----------------------------------------------------------------|.
A|----------------------------------------------------------------|.
E|----------------------------------------------------------------|.
B|0---0---0---0---0---0---0---0---0---0---0---0---0---0---0-------|.

0:28

G|----------------------------------------------------------------|
D|----------------2---2---2---2---2---2---2---2---2---2---2---2---|
A|----------------------------------------------------------------|
E|0---------------------------------------------------------------|
B|----------------------------------------------------------------|

G|----------------------------------------------------------------|
D|2---------------------------------------------------------------|
A|----2---2---2---2---2---2---2---2---2---2---2---2---2---2-------|
E|----------------------------------------------------------------|
B|----------------------------------------------------------------|

G|----------------------------------------------------------------|
D|--------------------------------5-----------4-----------2-------|
A|----------------------------------------------------------------|
E|2---2---2---2---2---2---2---------------------------------------|
B|----------------------------------------------------------------|

G|----------------------------------------------------------------|
D|----------------------------------------------------------------|
A|----2---2---2---2---2---2---2---2---2---2---2---2---2---2-------|
E|----------------------------------------------------------------|
B|----------------------------------------------------------------|

G|----------------------------------------------------------------|
D|----------------------------------------------------------------|
A|3---------------3---3---3---3---3---3---3---3---3---3---3---3---|
E|----------------------------------------------------------------|
B|----------------------------------------------------------------|

G|----------------------------------------------------------------|
D|----------------------------------------------------------------|
A|3---0---0---0---0---0---0---0---0---0---0---0---0---0---0-------|
E|----------------------------------------------------------------|
B|----------------------------------------------------------------|

G|----------------------------------------------------------------|
D|--------------------------------8-----------7-----------8-------|
A|1---1---1---1---1---1---1---------------------------------------|
E|----------------------------------------------------------------|
B|----------------------------------------------------------------|

G|--/-7-7-7-7-7-7-7-7-7-7-7-7-7---6-6-6-6-6-6-6-6-6-6-6-6-6-6-6---|
D|----------------------------------------------------------------|
A|----------------------------------------------------------------|
E|----------------------------------------------------------------|
B|----------------------------------------------------------------|

0:55

G|----------------------------------------------------------------|
D|----------------2---2---2---2---2---2---2---2---2---2---2---2---|
A|----------------------------------------------------------------|
E|0---------------------------------------------------------------|
B|----------------------------------------------------------------|

G|----------------------------------------------------------------|
D|2---------------------------------------------------------------|
A|----2---2---2---2---2---2---2---2---2---2---2---2---2---2-------|
E|----------------------------------------------------------------|
B|----------------------------------------------------------------|

G|----------------------------------------------------------------|
D|--------------------------------5-----------4-----------2-------|
A|----------------------------------------------------------------|
E|2---2---2---2---2---2---2---------------------------------------|
B|----------------------------------------------------------------|

G|----------------------------------------------------------------|
D|----------------------------------------------------------------|
A|----2-----------0-----------------------------------------------|
E|----------------------------3-----------2-----------3-----------|
B|----------------------------------------------------------------|

G|----------------------------------------------------------------|
D|----------------------------------------------------------------|
A|----------------3---3---3---3---3---3---3---3---3---3---3---3---|
E|----------------------------------------------------------------|
B|1---------------------------------------------------------------|

G|----------------------------------------------------------------|
D|----------------------------------------------------------------|
A|3---0---0---0---0---0---0---0---0---0---0---0---0---0---0-------|
E|----------------------------------------------------------------|
B|----------------------------------------------------------------|

G|----------------------------------------------------------------|
D|--------------------------------8-----------7-----------8-------|
A|1---1---1---1---1---1---1---------------------------------------|
E|----------------------------------------------------------------|
B|----------------------------------------------------------------|

G|--------------------7---7---------------------------------------|
D|----9---9---9-----------------------7---7---7-------------------|
A|----------------------------5---5-------------------4---4-------|
E|----------------------------------------------------------------|
B|----------------------------------------------------------------|

1:22

G|----------------------------------------------------------------|.
D|----------------------------------------------------------------|.
A|----------------------------------------------------------------|.
E|0---------------------------------------------------------------|.
B|----------------------------------------------------------------|.
                                                                   .
G|----------------------------------------------------------------|.
D|----------------------------------------------------------------|.
A|----------------------------------------------------------------|.
E|----------------------------------------------------------------|.
B|0---------------------------------------------------------------|.
                                                                   . x2
G|----------------------------------------------------------------|.
D|----------------------------------------------------------------|.
A|----------------------------------------------------------------|.
E|3---------------------------------------------------------------|.
B|----------------------------------------------------------------|.
                                                                   .
G|----------------------------------------------------------------|.
D|----------------------------------------------------------------|.
A|----------------------------------------------------------------|.
E|----------------------------------------------------------------|.
B|0---------------------------------------------------------------|.

Repeat from the beginning.







4:06

G|----------------------------------------------------------------|.
D|----------------------------------------------------------------|.
A|----------------------------------------------------------------|.
E|0---0---0---0---0---0---0---0---0---0---0---0---0---0---0-------|.
B|----------------------------------------------------------------|.
                                                                   .
G|----------------------------------------------------------------|.
D|----------------------------------------------------------------|.
A|----------------------------------------------------------------|.
E|----------------------------------------------------------------|.
B|0---0---0---0---0---0---0---0---0---0---0---0---0---0---0-------|.
                                                                   . x4
G|----------------------------------------------------------------|.
D|----------------------------------------------------------------|.
A|----------------------------------------------------------------|.
E|3---3---3---3---3---3---3---3---3---3---3---3---3---3---3-------|.
B|----------------------------------------------------------------|.
                                                                   .
G|----------------------------------------------------------------|.
D|----------------------------------------------------------------|.
A|----------------------------------------------------------------|.
E|----------------------------------------------------------------|.
B|0---0---0---0---0---0---0---0---0---0---0---0---0---0---0-------|.
Suggest correction
Give kudos to tab author, rate the tab!
1 2 3 4 5
comments
print report bad tab
guest
You may want to rate the tab now too:
select rating
Wanna post a correction for this tab? Suggest correction