Oops, an error
Loading. Please wait.

Housefire chords

13 views 1 this week
no commentswrite comment
1 2 3 4 5
3 more votes to show rating
add to favorites
×
Save as Personal and add changes to this tab that will be seen only by you. Learn more ›
×
You can save this tab as Personal to edit and correct it or add notes. All changes will be seen only by you. Learn more »
launch autoscroll
font size
0
reset
transpose
0
reset
display chords
guitar tuner
edit
Autoscroll
slow
fast
+/-
esc
set tempo
stop
Author
Difficulty
Strumming
There is no strumming pattern for this song yet. and get +5 IQ
[Intro]
e|---------------------------------------------------------------------------|
B|-13--13--13--13~---10--12--13-13--13--12~---10--12--13--13--13--13~--------|
G|---------------------------------------------------------------------------|
D|---------------------------------------------------------------------------|
A|---------------------------------------------------------------------------|
E|---------------------------------------------------------------------------|

e|---------------------------------------------------------------------------|
B|-10--12--13--13--13----13--12-10-------------------------------------------|
G|---------------------------------12----------------------------------------|
D|---------------------------------------------------------------------------|
A|---------------------------------------------------------------------------|
E|---------------------------------------------------------------------------|

F Dm Am C Dm

[Verse]
F               Dm          Am      C
It's  hard luck town so the people say
Dm             F       Am            G
if you place a bet, it won't go your way
F              Dm        Am         C
As the faces stared, you caught my eye
Dm                  F              Am         G
and you seem quite strange, and I don't know why

[Chorus]
F          Dm                 Am            C          Dm
I stepped right into a house fire, you mix fear and desire
Dm      F             Am             G        F
I know I could get tyre of getting burned
Dm          Am    Dm  F     F             Am
House House fire    -      house house fire

[Verse]
F                   Dm    Am             C
In this ghost like town, people hardly speak
Dm              F     Am                 G
just to hear a word, you could wait all week
F              Dm       Am               C
but the voices in, both our heads are crying
Dm              F                  Am       G
we should both escape, cause this town is dying

[Chorus]
F          Dm                 Am            C          Dm
I stepped right into a house fire, you mix fear and desire
Dm       F            Am             G          F
I know I could get tyre of getting burned
F         Dm                  Am           C            Dm 
Prepare, there will be a fallout, of this I'm in no doubt,
Dm           F                  Am           G
I've stepped right into a house fire, I'm getting burned

[Bridge]
e|---------------------------------------------------------------------------|
B|-10--8--10--s12--10--12--s13--12--13--s15--17--15--13--12------------------|
G|---------------------------------------------------------------------------|
D|---------------------------------------------------------------------------|
A|---------------------------------------------------------------------------|
E|---------------------------------------------------------------------------|

House House fire - House House fire

e|---------------------------------------------------------------------------|
B|-10--8--10--s12--10--12--s13--12--13--s15--17--15--13--12------------------|
G|---------------------------------------------------------------------------|
D|---------------------------------------------------------------------------|
A|---------------------------------------------------------------------------|
E|---------------------------------------------------------------------------|

House House fire - house house fire

[Chorus]
F          Dm                 Am            C          Dm
I stepped right into a house fire, you mix fear and desire
Dm       F            Am             G          F
I know I could get tyre of getting burned
F         Dm                  Am           C            Dm 
Prepare, there will be a fallout, of this I'm in no doubt,
Dm           F                  Am           G
I've stepped right into a house fire, I'm getting burned

            
            
Suggest correction
Creating personal tab
Creating personal tab
You can edit any tab online and save it as your Personal.

You can edit, replace or remove any tab part or add personal notes – all changes will be seen only by you.

Personal tabs can be accessed anytime from any device, even offline.
Learn more »
Give kudos to tab author, rate the tab!
1 2 3 4 5
comments
print report bad tab
guest
You may want to rate the tab now too:
select rating
Wanna post a correction for this tab? Suggest correction