Oops, an error
Loading. Please wait.

Humans Are Dead bass

version 1
version 1

Whole song

Interactive

13,074 views 1 this week
no commentswrite comment
1 2 3 4 5
x 3
add to favorites
×
Save as Personal and add changes to this tab that will be seen only by you. Learn more ›
×
You can save this tab as Personal to edit and correct it or add notes. All changes will be seen only by you. Learn more »
launch autoscroll
font size
0
reset
guitar tuner
edit
Autoscroll
slow
fast
+/-
esc
set tempo
stop
Difficulty
The Humans Are Dead
Flight of the Conchords

This should be right, listening to the song for timing but pretty much the whole song is 
eighth notes. Standard tuning.

From start until "The humans are dead" part.

|-----------------|
|-777777777777777-|
|-----------------|
|-----------------|

over and over.

"Chorus" play twice.

|-----------------------------------|
|---7--7---7--7---7--7---7--7---7--7|
|-----------------------------------|
|-5--5---5--5---5--5---5--5---5--5--|

|---7--7---7--7---7--7---7--7---7--7|
|-----------------------------------|
|-5--5---5--5---5--5---5--5---5--5--|
|-----------------------------------|

|---5--5---5--5---5--5---5--5---5--5|
|-----------------------------------|
|-3--3---3--3---3--3---3--3---3--3--|
|-----------------------------------|

|---7--7---7--7---7--7---7--7---7--7|
|-----------------------------------|
|-5--5---5--5---5--5---5--5---5--5--|
|-----------------------------------|

"System of Opression" part

|------------------------------------|
|------------------------------------|
|----------------------------55555555|
|-11111111-33333333-55555555---------|

|------------------------------10-10-10-10|
|----------------------------7--7---7--7--|
|-----------------------------------------|
|-11111111-33333333-55555555--------------|


Captain, can't you see what we have done?" part.

(Play over until "destroy him")

|-----------------------------------|
|---7--7---7--7---7--7---7--7---7--7|
|-----------------------------------|
|-5--5---5--5---5--5---5--5---5--5--|


"Our powers grew stronger" part.

|------------------------------------|
|------------------------------------|
|----------------------------55555555|
|-11111111-33333333-55555555---------|

|------------------------------------|
|-33333333-55555555-77777777---7-----|
|------------------------------------|
|------------------------------------|

Don't play for the talking bit. "can't we just talk to the humans"

"Chorus"

play twice.

|-----------------------------------|
|---7--7---7--7---7--7---7--7---7--7|
|-----------------------------------|
|-5--5---5--5---5--5---5--5---5--5--|

|---7--7---7--7---7--7---7--7---7--7|
|-----------------------------------|
|-5--5---5--5---5--5---5--5---5--5--|
|-----------------------------------|

|---5--5---5--5---5--5---5--5---5--5|
|-----------------------------------|
|-3--3---3--3---3--3---3--3---3--3--|
|-----------------------------------|

|---7--7---7--7---7--7---7--7---7--7|
|-----------------------------------|
|-5--5---5--5---5--5---5--5---5--5--|
|-----------------------------------|

Binary solo (play twice)

|-----------------------|
|-------------3---------|
|------5--------------5-|
|-5---------------------|

"Come on sucker lick my battery" (play twice)

|--------------------7--9---10--12-------|
|---7--9---10--12------------------------|
|------------------5--7---8--10----------|
|-5--7---8--10---------------------------|


|---5--5---7--5---7--7---7--7-------|
|-----------------------------------|
|-3--3---5--3---5--5---5--5---------|
|-----------------------------------|

"The humans are dead dead dead dead"

|------------------|
|------------------|
|------------------|
|-5857-55555555/1--|


Have fun.
Suggest correction
Creating personal tab
Creating personal tab
You can edit any tab online and save it as your Personal.

You can edit, replace or remove any tab part or add personal notes – all changes will be seen only by you.

Personal tabs can be accessed anytime from any device, even offline.
Learn more »
Give kudos to tab author, rate the tab!
1 2 3 4 5
comments
print report bad tab
guest
Wanna post a correction for this tab? Suggest correction