Oops, an error
Loading. Please wait.

St Patricks bass

37 views 1 this week
no commentswrite comment
1 2 3 4 5
3 more votes to show rating
add to favorites
×
Save as Personal and add changes to this tab that will be seen only by you. Learn more ›
×
You can save this tab as Personal to edit and correct it or add notes. All changes will be seen only by you. Learn more »
launch autoscroll
font size
0
reset
guitar tuner
edit
Autoscroll
slow
fast
+/-
esc
set tempo
stop
Author
Difficulty
Flin Flon- St. Patricks 

Standard Tuning
These guys are the pure essence of Post Punk. Real shame that so few know about them. 
Reminds me of Joy Division's bass player's technique of playing

This is played with Distortion on about half with tone on full

Listen to the song for timing because it keeps changing and is very unusual 
 Intro  0:00-1:00
G|---------------------------------------------------------------|
D|---------------------------------------------------------------|
A|-0-7~~~--------------------------------------------------------| X12 (first 3 last longer)
E|---------------------------------------------------------------|
  


Verse 1:00-6:40 (Repeated until 6:40 minutes, listen for timing because it's unusual)
G|---------------------------------------------------------------|
D|---5~~~~~-4~~~~~~----------------------------------------------|
A|-0-------0--------0-7~~~~~-------------------------------------|
E|---------------------------------------------------------------|
 
G|---------------------------------------------------------------|
D|---------------------------------------------------------------|
A|-0-7~~~~~~~~---------------------------------------------------| X2
E|---------------------------------------------------------------|

G|---------------------------------------------------------------|
D|---------------------------------------------------------------|
A|-0-5~~~~0-4~~~~~0-7~~~~~~~-------------------------------------|
E|---------------------------------------------------------------|
(vocals come in)
G|---------------------------------------------------------------|
D|---------------------------------------------------------------|
A|-0-7~~~~~~-----------------------------------------------------| X2
E|---------------------------------------------------------------|
 



  Conclusion Start 6:40-7:48
G|---------------------------------------------------------------|
D|---------------------------------------------------------------|
A|-0-5~~~~0-4~~4~44-0-7~~~~--------------------------------------|
E|---------------------------------------------------------------|

G|---------------------------------------------------------------|
D|----------------4~~4~44----------------------------------------|
A|-7~~7~77-0-5~5~--------0-7~~~----------------------------------|
E|---------------------------------------------------------------|

G|---------------------------------------------------------------|
D|--------5~~~7~~~~----------------------------------------------|
A|-0-7~~~0---------0-7~~~~---------------------------------------|
E|---------------------------------------------------------------|

G|---------------------------------------------------------------|
D|---------------------------------------------------------------|
A|-0-5~~~~0-4~~~~~0-7~~~~~~~-------------------------------------|
E|---------------------------------------------------------------|


Conclusion End 7:48-8:27

G|---------------------------------------------------------------|
D|---------------------------------------------------------------|
A|-0-5~~~~0-4~~4~44-0-7~~~~--------------------------------------|
E|---------------------------------------------------------------|

G|---------------------------------------------------------------|
D|----------------4~~4~44----------------------------------------|
A|-7~~7~77-0-5~5~--------0-7~~~----------------------------------|
E|---------------------------------------------------------------|

G|---------------------------------------------------------------|
D|--------5~~~7~~~~----------------------------------------------|
A|-0-7~~~0---------0-7~~~~-0-7~~~~~~~~~~~~~~~~~~~~~~~~~~~~~~~~~~~|
E|---------------------------------------------------------------|

Then it's just drums and some feed back distortion effects until the end
This band has some astonishing work and it's a real shame that very few know about them. 
Pure essence of Post Punk. 

| /  slide up
| \  slide down
| h  hammer-on
| p  pull-off
| ~  vibrato
| +  harmonic
| x  Mute note

            
            
Suggest correction
Creating personal tab
Creating personal tab
You can edit any tab online and save it as your Personal.

You can edit, replace or remove any tab part or add personal notes – all changes will be seen only by you.

Personal tabs can be accessed anytime from any device, even offline.
Learn more »
Give kudos to tab author, rate the tab!
1 2 3 4 5
comments
print report bad tab
guest
You may want to rate the tab now too:
select rating
Wanna post a correction for this tab? Suggest correction