Oops, an error
Loading. Please wait.

Grootste Lul Van T Stad bass

846 views 1 this week
4 commentsread comments
1 2 3 4 5
x 3
add to favorites
×
Save as Personal and add changes to this tab that will be seen only by you. Learn more ›
×
You can save this tab as Personal to edit and correct it or add notes. All changes will be seen only by you. Learn more »
launch autoscroll
font size
0
reset
guitar tuner
edit
Autoscroll
slow
fast
+/-
esc
set tempo
stop
Author
song:Grootste lul van 't stad
band:Flip Kowlier

joe dit is mijn eerste tab dus ik hoop da gelle het een goeje vinde

Intro
G|-------------------------------------------------(9)----------------------|
D|---------------(2)--------------------------------------------------------|
A|--------------------------------(4)-------------------------------4----0--|
E|---6-0-0-6-0-0-----3-0-0-3-0-0------6-0-0-6-0-0------3-0-0-3-0-0-----4----|

kdenk da alleen de gitaar da wa tussen haakjes staat speelt

Vers
G|--------------------------|
D|--------------------------|
A|---------------77777777---|       X12
E|---999-444-555------------|

Chorus
G|-----------------------------------------------------------------|
D|-----------------------------------------------------------------|
A|---------------77777777-------------77777777----------------7777-|
E|---999-444-555----------999-444-555----------9999-4444-5555------|

G|--------------------------|
D|--------------------------|
A|---------------77777777---|
E|---999-444-555------------|

Vers
G|--------------------------|
D|--------------------------|
A|---------------77777777---|       X4
E|---999-444-555------------|

G|-------------------------------------------------|
D|-------------------------------------------------|
A|-------------------------------------------------|
E|---99999999-77777777-99999999-1212121212121212---|

Chorus
G|-----------------------------------------------------------------|
D|-----------------------------------------------------------------|
A|---------------77777777-------------77777777----------------7777-|
E|---999-444-555----------999-444-555----------9999-4444-5555------|

G|--------------------------|
D|--------------------------|
A|---------------77777777---|
E|---999-444-555------------|

Vers
G|--------------------------|
D|--------------------------|
A|---------------77777777---|       X4
E|---999-444-555------------|

(speciale)Chorus
G|-----------------------------------------------------------------|
D|-----------------------------------------------------------------|
A|---------------77777777-------------77777777----------------7777-|
E|---999-444-555----------999-444-555----------9999-4444-5555------|

G|------------------------------------------------------------------|
D|------------------------------------------------------------------|
A|---------------77777777-------------77777777-------------77777777-|
E|---999-444-555----------999-444-555----------999-444-555----------|

G|----------------------------------------------|
D|----------------------------------------------|
A|------------------7777------------------------|
E|---9999-4444-5555------999-444-555-00000000---|

Outro
G|-------------------------------------------------(9)--------------------|
D|---------------(2)------------------------------------------------------|
A|--------------------------------(4)-------------------------------(4)---|
E|---6-0-0-6-0-0-----3-0-0-3-0-0------6-0-0-6-0-0------3-0-0-3-0-0--------|

G|--------------------------------------------------------------------------|
D|---------------(2)--------------------------------(2)---------------------|
A|--------------------------------(4)---------------------------------(4)---|
E|---6-0-0-6-0-0-----3-0-0-3-0-0------6-0-0-6-0-0--------3-0-0-3-0-0--------|


khoop da ge er van geniet !!!

            
            
Suggest correction
Creating personal tab
Creating personal tab
You can edit any tab online and save it as your Personal.

You can edit, replace or remove any tab part or add personal notes – all changes will be seen only by you.

Personal tabs can be accessed anytime from any device, even offline.
Learn more »
Give kudos to tab author, rate the tab!
1 2 3 4 5
comments
print report bad tab
4 comments total. Showing first comments.
+1 reply
vj tony 10 May 10, 2007 12:10 PM

Misschien beter de '9' op de E overal vervangen door de '4' op de A, ik zag het zo live.

In de intro doet er trouwens geen basgitaar mee...

Voor de rest: goeie tab, had ongeveer hetzelfde gevonden, 4 sterren!

+1 reply
adonis123 31 Jun 23, 2007 12:59 PM

goe gdn man
lang leve de mense da nederlands prat ehe:p

+1 reply
rockNrollie 30 Feb 08, 2009 09:19 AM

zalig liedje, zotten tab.
Merci e man :p

guest
You may want to rate the tab now too:
select rating
Wanna post a correction for this tab? Suggest correction