Oops, an error
Loading. Please wait.

Min Moaten tab

1,722 views 9 this week
2 commentsread comments
1 2 3 4 5
2 more votes to show rating
add to favorites
×
Save as Personal and add changes to this tab that will be seen only by you. Learn more ›
×
You can save this tab as Personal to edit and correct it or add notes. All changes will be seen only by you. Learn more »
launch autoscroll
font size
0
reset
how to read this tab
guitar tuner
edit
Autoscroll
slow
fast
+/-
esc
set tempo
stop
Author
Difficulty
Flip Kowlier- Min Moaten

I Think i got a pretty good feel of how it goes. 
I'm not quite sure about the chorus but intro and verses sound allright :) It's not perfect!!

Chords used: C G Em F A D (open chords sound best)

Tuning: standard (EADGBe)

Intro:
------
The intro is basic picking on open chords.
Not so hard once you got it down.
When you use a C-chord use your pinkie to place the extra notes. 
It goes like this:

         C                         F
e|-----|--0---0-------3-1----------1~------1-0---0---0-----|
B|-----|----1---1---1-----3-1---0--1~----1-----1---1---3---|
G|-----|----------0-----------0----2~--2-------------------|
D|-----|---------------------------3~----------------------|
A|--0-2|--3~-----------------------3~----------------------|
E|3----|---------------------------------------------------|

e|-----|--0---0-------3-1----------1~--|
B|-----|----1---1---1-----3-1---0--1~--|
G|-----|----------0-----------0----2~--|
D|-----|---------------------------3~--|
A|--0-2|--3~-----------------------3~--|
E|3----|-------------------------------|

Verse 1:
--------
You play all chords like below. 
You start playing the bass note of each chord + 3 (or 4) higher notes on the other strings. 
Strum the higher notes. 
According to me it sounds best that way. Try tu mute a little bit.

   C      G       
e|--------------------| x2
B|---1-1---(0)(0)-----|
G|---0-0----0--0------|
D|---2-2----0--0------|
A|-3-3-3----2--2------|
E|--------3-----------|

   TLP,   e ne party dj...

Again from the top (but now only lyrics and which chords you need to play like above)

C    G          C   G
Tlp, è ne party dj

Am                Em             C       G
moa skratch solo's goa tie nie briengn, ahn

F         Em           A    D
sex i zun lust en zun levn

D(some extra strumming) G~
Tlp, de Gentse porno-king

||Note!!|| 
1) At the end of each verse, you play the very first bit of the intro 
   as a starter for the next verse.
2) If you strum, you can occasionally strum a little more with less muting.

Same for verse 2 & 3.
---------------------

Chorus
------
Here you initially play the chords the same way as in the verses. 
But gradually you strum more and more and you play a little louder and louder.

C           G
min moaten, min moaten
C             G
Ik zien under gèrn
F                      C       G
wuk zoekik doen zonder hidder
C          G
min moaten min moaten
C                 G
'k moete mie soms wèrn
    Am   E(m)   C       D       G (Strum these chords, no bass notes)
voe nie sentimenteel te doen

Verse 4 & 5
-------
Same as other verses

Chorus x2
---------
When playing the last chorus the last sentence is

     Am             E(m)       C         
"wuk zoet de wèreld zin zonder widder, ah niet"

Outro
-----
At the end there is a little piece of piano. 
I tabbed it out below for guitar  for those who want to learn it. 
(It's not perfect though! I think you need to add some bass notes as well)


e|-----0---------------1-1-0-----------0~---|
B|-1-3---0---0-1-------------3-1-0-1-3-1~---|
G|---------2-----0-0-2-----------------0~---|
D|-------------------------------------2~---|
A|-------------------------------------3~---|
E|------------------------------------------|


That's basically it, I think :) Lots and lots of fun!!!
(If you can correct, please let me know!!)

            
            
Suggest correction
Creating personal tab
Creating personal tab
You can edit any tab online and save it as your Personal.

You can edit, replace or remove any tab part or add personal notes – all changes will be seen only by you.

Personal tabs can be accessed anytime from any device, even offline.
Learn more »
Give kudos to tab author, rate the tab!
1 2 3 4 5
comments
print report bad tab
2 comments total.
0 reply
Frigorius 89 Jun 30, 2015 04:06 AM

I think the intro is more like this...

C F
e|-----|--0---0-------3-0----------1~------1-0---0---0-----|
B|-----|----4---1---1-----3-1---0--1~----1-----1---4-------|
G|-----|----------0-----------0----2~--2-------------------|
D|-----|---------------------------3~----------------------|
A|--0-2|--3~-----------------------3~----------------------|
E|3----|---------------------------------------------------|

e|-----|--0---0-------3-0----------1~--|
B|-----|----4---1---1-----3-1---0--1~--|
G|-----|----------0-----------0----2~--|
D|-----|---------------------------3~--|
A|--0-2|--3~-----------------------3~--|
E|3----|-------------------------------|

0 reply
Frigorius 89 Jun 30, 2015 04:11 AM

There is an (double) F missing in the last sentence of the refrain. Good tab though

Am E(m) C D F G (Strum these chords, no bass notes)
voe nie sentimenteel te doen

guest
You may want to rate the tab now too:
select rating
Wanna post a correction for this tab? Suggest correction