Oops, an error
Loading. Please wait.

Sex Bomb Baby tab

by Flipper
887 views 1 this week
1 commentread comment
1 2 3 4 5
3 more votes to show rating
add to favorites
×
Save as Personal and add changes to this tab that will be seen only by you. Learn more ›
×
You can save this tab as Personal to edit and correct it or add notes. All changes will be seen only by you. Learn more »
launch autoscroll
font size
0
reset
how to read this tab
guitar tuner
edit
Autoscroll
slow
fast
+/-
esc
set tempo
stop
#----------------------------------PLEASE NOTE---------------------------------#
#This file is the author's own work and represents their interpretation of the #
#song. You may only use this file for private study, scholarship, or research. #
#------------------------------------------------------------------------------#
#


From aldon@mindspring.com Mon May 12 13:24:00 1997
Date: Wed, 30 Apr 1997 21:49:35 -0400
From: Allen Cantrell 
To: guitar@olga.net
Subject: Flipper tab

HI, This is my first tab to send to you.  I thank you greatly for the
service you provide and would like for your orginization to remain for some
time, BMI pending.  Anywhoo, Here's a tab for Flipper's song "sex bomb baby."


FLIPPER'S "SEX BOMB BABY"

------------------------------------------------|
------------------------------------------------|
------------------------------------------------|
-5--0--2--0--2--0--5--0--2--0--2--0--5--4--3--2-|
BASS PART

FOR THE GUITAR PART JUST KEEP PLAYING AN "A" CHORD
AND FOR THOSE WHO ARE NOT FARMILIAR WITH THE INFAMOUS
"A" CHORD.  IT IS PLAYED AS FOLLOWS:

E-----
B--2--
G--2--
D--2--
A--0--
E-----

YOU COULD ACTUALLY PLAY THE SONG WITHOUT THE BASS ACCOMPANYMENT, BUT IT
WOULD TAKE SOME COORDINATION BETWEEN THE THUMB AND FINGERS.  IT CAN BE DONE
SO HERE'S HOW I PLAY IT.  THE "T"'S REPRESENT THE USE OF THE THUMB.

------------------------------------------------------------------------|
------------------------------------------------------------------------|
--2-----------------2-----------------2-----------------2---------------|
--2-----------------2-----------------2-----------------2---------------|
--0-----------------0-----------------0-----------------0---------------|
-----0--2--0--2--0-----0--2--0--2--0-----0--2--0--2--0-----4--3--2--0---|
        T     T           T     T           T     T

THIS IS A REALLY GREAT SONG FROM A REALLY GREAT BAND, AND IF YOU HAPPEN TO
PICK UP THE RECORD "SEX BOMB BABY" I THINK YOU WILL REALLY ENJOY IT.  IT'S
ON THE Infinite Zero LABEL.

MY THANKS TO HENRY ROLLINS FOR HELPING RERELEASE ALOT OF REALLY GREAT BANDS,
LIKE THE MONKS.  PLEASE TAKE THE TIME TO REALLY LISTEN TO SOME OLDER BANDS,
YOU CAN REALLY LEARN A LOT FROM THEM AND HERE SOME GREAT SONGS.  THE GERMS,
THE VASELINES, FLIPPER, BLACK FLAG, THE RAINCOATS ARE SOME GOOD PUNK BANDS
TO CHECK OUT.

PLEASE DON'T THINK OF ME AS COMMERCIAL AND DEMEANING OF THE INTEGRITY OF
FLIPPER IN CONTRIBUTING THIS.

SIGNED,

ME.

            
            
Suggest correction
Creating personal tab
Creating personal tab
You can edit any tab online and save it as your Personal.

You can edit, replace or remove any tab part or add personal notes – all changes will be seen only by you.

Personal tabs can be accessed anytime from any device, even offline.
Learn more »
Give kudos to tab author, rate the tab!
1 2 3 4 5
comments
print report bad tab
1 comment total.
0 reply
AtlantaHardcore 100 Aug 25, 2008 02:07 PM

Song: Sex Bomb
Band: Flipper
Album: Generic [aka Album Generic or Generic Flipper]

G---------------------------------------------------|
D---------------------------------------------------|
A---------------------------------------------------|
E-5---0-2-0-3-0-5---0-2-0-3-0-5---0-2-0-3-0-3-2-1-0-|

guest
Wanna post a correction for this tab? Suggest correction