Oops, an error
Loading. Please wait.

Someday solo tab

version 1
version 1

Whole song

Interactive

43,958 views 39 this week
4 commentsread comments
1 2 3 4 5
x 5
add to favorites
×
Save as Personal and add changes to this tab that will be seen only by you. Learn more ›
×
You can save this tab as Personal to edit and correct it or add notes. All changes will be seen only by you. Learn more »
launch autoscroll
font size
0
reset
how to read this tab
guitar tuner
edit
Autoscroll
slow
fast
+/-
esc
set tempo
stop
Author
Difficulty
Unregistered
e|-----------------------------------------------------------------|
B|-----------------------------------------------------------------|
G|--------------5---------------7---------------5-7-9-10-9-7-5-4---|
D|--7-7-7-6-7-9-----7-7-7-6-7-9-----7-7-7-6-7-9--------------------|
A|-----------------------------------------------------------------|
E|-----------------------------------------------------------------|

e|--------------------------------5-4h5-7-8-10-13-12-h13-12---|
B|------------------------5-6-5-------------------------------|
G|--4-4-4-5-4---4-5-4-5-7-------------------------------------|
D|------------7-----------------------------------------------|
A|------------------------------------------------------------|
E|------------------------------------------------------------|

e|-----0-8-7-8----8-7-8---7-10-8-10-7-10-8-10---8-12-10-12-8-12-10-12---|
B|---10--------10-------------------------------------------------------|
G|--9-------------------------------------------------------------------|
D|----------------------------------------------------------------------|
A|----------------------------------------------------------------------|
E|----------------------------------------------------------------------|

e|------15-13-12----13-12-------15-13-12----13-12--|
B|----13---------15-----------13---------15--------|
G|--14----------------------14---------------------|
D|-------------------------------------------------|
A|-------------------------------------------------|
E|-------------------------------------------------|

e|131313-121212------|
B|-------------------|
G|-------------------|
D|-------------------|
A|-------------------|
E|-------------------|

e|-------15-13-12------13-12----------------------|
B|-----13---------15---------15-13-15-13-12----12-|
G|---14-------------------------------------14----|
D|------------------------------------------------|
A|------------------------------------------------|
E|------------------------------------------------|

e|-----------------------------------------------|
B|-----------------------------------------------|
G|-----------------------------------------------|
D|-15-14-12-14-12--------------------------------|
A|----------------15-14-12-----------------------|
E|-----------------------------------------------|

[By: Flexmaster Mike]

            
            
Suggest correction
Creating personal tab
Creating personal tab
You can edit any tab online and save it as your Personal.

You can edit, replace or remove any tab part or add personal notes – all changes will be seen only by you.

Personal tabs can be accessed anytime from any device, even offline.
Learn more »
comments
print report bad tab
4 comments total. Showing first comments.
0 reply
vbpart4 21 Jan 15, 2006 10:06 PM

damn .... cool

0 reply
Purple_Slurpie 10 Mar 21, 2006 05:26 AM

An awesome tab for an increadible song. It's a challenge to play but not extremely difficult if you break it down piece by piece.

Very nice job. Keep up the good work.

0 reply
PunkInDrublic 10 May 24, 2006 07:32 AM

nice ! good job ;-)

guest
Wanna post a correction for this tab? Suggest correction