Oops, an error
Loading. Please wait.

Someday Tab

version 2
version 2

Whole song

Interactive

1,080 views 6 this week
no commentswrite comment
1 2 3 4 5
excellent!
x 1
add to favorites
launch autoscroll
font size
0
reset
how to read this tab
guitar tuner
Tab Pro tools
  • play this tab
  • loop segment
  • change instrument
  • show fretboard
  • metronome
×
Best way to learn
"Someday"
Autoscroll
slow
fast
+/-
esc
set tempo
stop
Contributor
Difficulty
intermediate
 Artist:Flipsyde
 Song:Someday

 Cool song took me a while to fighre tho. had to get my mate to help out!


 H=Hammer on
 P=Pull off
 ~=Wiggle/slight bend

Veruse/intro
 e-----------------------------0-----------------------------------|
 H-----0-1------1------0-----0-------------------------------------|
 G------------0------2-----------1---------------------------------|
 D----------------3------------------------------------------------|
 A--0------3-------------------------------------------------------|
 E-----------------------0-0---------------------------------------|

  Verse,can either play this V or the riff^

    |--------------Palm Mute---------------------------------------|
 e----5-5-5--5-5-3--3-3-3--3-3-1--1-1-1--1-1-0--0-0-0--0-0---------|
 H----5-5-5--5-5-3--3-3-3--3-3-1--1-1-1--1-1-0--0-0-0--0-0---------|
 G----5-5-5--5-5-5--5-5-5--5-5-2--2-2-2--2-2-0--0-0-0--0-0---------|
 D----7-7-7--7-7-5--5-5-5--5-5-3--3-3-3--3-3-2--2-2-2--2-2---------|
 A----7-7-7--7-7-3--3-3-3--3-3-3--3-3-3--3-3-2--2-2-2--2-2---------|
 E----5-5-5--5-5-X--X-X-X--X-X-1--1-1-1--1-1-X--X-X-X--X-X---------|




 The rundown thingy at the start of the verse.

 e--0-1-0-------------------------------------------|
 B--------3-1-0-------------------------------------|
 G--------------2-1---------------------------------|
 D------------------3-2-0---------------------------|
 A------------------------3-2-3-2~------------------|
 E--------------------------------------------------|


 Now the solo in the middle of the song.
 if the notes are like this=> 121312131213. play them real fast

 e-------------------------------------------------0-1-0-------------|
 H-------------1---------------3---------------1-3-------3-1-0-0-----|
 G--2-2-2-1-2-4-----2-2-2-1-2-4-----2-2-2-1-2-4----------------------|
 D-------------------------------------------------------------------|
 A-------------------------------------------------------------------|
 E-------------------------------------------------------------------|

 e-----------------------------------5-3h5-8-10-12-12-12-12-12~------|
 H---0-0-1-0---0-1-0-1-3-5-6-5-6-5~----------------------------------|
 G-----------2-------------------------------------------------------|
 D-------------------------------------------------------------------|
 A-------------------------------------------------------------------|
 E-------------------------------------------------------------------|

 e-0-5-8-7-8-5-8-7-8-7-10-8-10-7-10-8-10-8-12-10-12-8-12-10-12------|
 H------------------------------------------------------------------|
 G------------------------------------------------------------------|
 D------------------------------------------------------------------|
 A------------------------------------------------------------------|
 E------------------------------------------------------------------|
    V Try Hamemer on and pull off the whole thing
 e--(1313131312121212)--12-15-13-12-10-13-12---12-15-13-12-10-13-12-|
 H--------------------10---------------------10---------------------|
 G------------------------------------------------------------------|
 D------------------------------------------------------------------|
 A------------------------------------------------------------------|
 E------------------------------------------------------------------|


 e----12-15-13-12-10-13-12-10----12p10----12p10-----10---------------|
 H--10------------------------13-----13p12-----13p12—-13p12p10-------|
 G-------------------------------------------------------------------|
 D-------------------------------------------------------------------|
 A-------------------------------------------------------------------|
 E-------------------------------------------------------------------|


 e--10----------------|
 H----13p12h13p10~----|
 G--------------------|
 D--------------------|
 A--------------------|
 E--------------------|
comments
We did not receive enough feedback on this tab! Please rate:
print report bad tab
1 2 3 4 5
I want to post or [tab]
guest
You may want to rate the tab now too:
select rating
Please do not post tabs as comments. Select "correction" instead!