Oops, an error
Loading. Please wait.

If You Cant Love This All Goes Away tab

619 views 3 this week
no commentswrite comment
1 2 3 4 5
3 more votes to show rating
add to favorites
×
Save as Personal and add changes to this tab that will be seen only by you. Learn more ›
×
You can save this tab as Personal to edit and correct it or add notes. All changes will be seen only by you. Learn more »
launch autoscroll
font size
0
reset
how to read this tab
guitar tuner
edit
Autoscroll
slow
fast
+/-
esc
set tempo
stop
Author
This is just a very simple version based on the way she plays the piano. Doesn't cover the entire song, but 
well it's a start, right? You can vary the tab anyway you like throughout the song.

Verse
e|---------------|-------------|---------------------|-----------|-----------|
B|----------1----|-------1-----|------1-------1------|------1----|------1----|
G|------2--------|----2--------|----2------2-------2-|----2------|----2------|
D|---3--------3--|--2-------2--|--1-----1--------1---|--3-----3--|--2-----2--|
A|---------------|-------------|---------------------|-----------|-----------|
E|---------------|-------------|---------------------|-----------|-----------|

e|-----------------0--------|
B|---------1----------------|
G|------2-------2--------2--|
D|--------------------------|
A|---3-------3--------3-----|
E|--------------------------|


Chorus
      Am    Em     G        F
e|-----------------------------|
B|----1------0-----0---0----1--|
G|----2------0-----0---0----2--|
D|----2------2-----0---0----3--|
A|----0---------------------3--|
E|-----------0-----3---3-------|




Oh, now that you know longer, mine
Baby the thought makes me cry
But then I think of the reasons why
And I find myself
Wiping these tears, dry
                  
                   Am   Em  G   G    F
But if you can't love this all goes away
If you can't love this all goes way

Oh, now that that I no longer yours
What is this realization employ?
You wanted me to completely ignore my ways -
what I was made for

Well if you can't love this all goes away
If you can't love this all goes away
If you can't love
If you can't love
can't love
can't love
If you can't love

This all goes away
every cruel word
every pain
for a day
every cruel word
every pain
for a day
every cruel word
every pain
for a day

But if love takes its grasp on you
It may lead the right way
While I hope for your sake
anyway


************************************

| /   slide up
| \   slide down
| h   hammer-on
| p   pull-off
| ~   vibrato
| +   harmonic
| x   Mute note
| b   Bend
| pb  Pre-bend
| br  Bend release
| pbr Pre-bend release
| brb Bend release bend

************************************

            
            
Suggest correction
Creating personal tab
Creating personal tab
You can edit any tab online and save it as your Personal.

You can edit, replace or remove any tab part or add personal notes – all changes will be seen only by you.

Personal tabs can be accessed anytime from any device, even offline.
Learn more »
Give kudos to tab author, rate the tab!
1 2 3 4 5
comments
print report bad tab
guest
You may want to rate the tab now too:
select rating
Wanna post a correction for this tab? Suggest correction