Oops, an error
Loading. Please wait.

Club Cant Handle Me Chords

version 5
version 5

Whole song

Interactive

74 views 1 this week
no commentswrite comment
1 2 3 4 5
2 more votes to show rating
add to favorites
launch autoscroll
font size
0
reset
transpose
0
reset
simplify chords
display chords
guitar tuner
×
Best way to learn
"Club Cant Handle Me"
Autoscroll
slow
fast
+/-
esc
set tempo
stop
Author
Difficulty
novice
-------------------------------------------------------------------------------
                            Club Can't Handle Me Now
-------------------------------------------------------------------------------
             
ARTIST: Flo Rida
ALBUM:  Only One Flo (Part 1)
YEAR: 2010

tabbed by : pp1pete

CAPO:   0
TUNING: standard

Difference from other versions
 [ Diff chord choice
 [ full, correct lyrics and chords
 [ tabbed second guitar option - intro and chorus
 [ chord timing
 [ riff for leading into chorus "you know I know how"


[THE CHORDS AND LYRICS ARE BELOW THE FOCUS NOTE]

  _______________________________________
         
  FOCUS: CHORUS guitar 1 and 2 --- 


  [If two guitars can use tab with chords]

          

    C         Cmaj7     F        F        C         C/E       F        F
e|---------|---------|--------|--------|---------|---------|--------|--------|------------|
B|---------|---------|-10-9---|-10-9---|---------|---------|-10-9---|-10-9---|------------|
G|-9-7-----|-9-7-----|------10|------10|-9-7-----|-9-7-----|------10|------10|------------|
D|-----10--|-----10--|--------|--------|-----10--|-----10--|--------|--------|------------|
A|---------|---------|--------|--------|---------|---------|--------|--------|------------|
E|---------|---------|--------|--------|---------|---------|--------|--------|------------|

    Am        C         F                 Am        C         F      
e|--8-7----|---------|--------|--------|--8-7----|---------|--------|--------|------------|
B|------10-|--8------|--------|--------|------10-|--8------|--------|--------|------------|
G|---------|---10-9--|---10-9-|--------|---------|---10-9--|---10-9-|--------|------------|
D|---------|---------|10------|-10-----|---------|---------|10------|-10-----|------------|
A|---------|---------|--------|--------|---------|---------|--------|--------|------------|
E|---------|---------|--------|--------|---------|---------|--------|--------|------------|


Riff *

  You know I  know  how             You know I  know  how   
e|----------------|-0-------|      e|----------------|---------|
B|---------1--3---|---------|      B|----------------|---------|
G|-0---2----------|---------|      G|----------------|-9-------|
D|----------------|---------|  or  D|--------10--12--|---------|
A|----------------|---------|      A|-10--12---------|---------|
E|----------------|---------|      E|----------------|---------|


  __________________________________________
 
  SONG


---INTRO---

   C                  Em                  F                                
e|------------------|-------------------|------------------|-------------------|
B|------------------|-------------------|------------------|-------------------|
G|-0-----0-----0----|---0-----0---0-----|-2-----2-----2----|---2-----2---0-0---|
D|-2-2-2-2-2-2-2-2--|-2-2-2-2-2-2-2-2---|-3-3-3-3-3-3-3-3--|-3-3-3-3-3-3-------|
A|-3-3-3-3-3-3-3-3--|-3-3-3-3-3-3-3-3---|-3-3-3-3-3-3-3-3--|-3-3-3-3-3-3-3-3---|
E|------------------|-------------------|------------------|-------------------|


                     
   C                  Em                  F                              Fsus2
e|------------------|-------------------|------------------|-------------------|
B|------------------|-------------------|------------------|-------------------|
G|-0-----0-----0----|---0-----0---0-----|-2-----2-----2----|---2-----2---0-0---|
D|-2-2-2-2-2-2-2-2--|-2-2-2-2-2-2-2-2---|-3-3-3-3-3-3-3-3--|-3-3-3-3-3-3-------|
A|-3-3-3-3-3-3-3-3--|-3-3-3-3-3-3-3-3---|-3-3-3-3-3-3-3-3--|-3-3-3-3-3-3-3-3---|
E|------------------|-------------------|------------------|-------------------|



---CHORUS 1--- 


*           C
 You know I know how
    Cmaj7                       F
 To make em stop and stare as I zone out
                               C
 The club can't even handle me right now
 C/E                         F
 Watchin you watchin me I go all out
                               Am         C            F
 The club can't even handle me right now (yea-e-a-ah) (yea-e-a-ah)
                               Am         C            F
 The club can't even handle me right now (yea-e-a-ah) (yea-e-a-ah)


 ---VERSE 1---
 C
 Hey                 
 I own the light and I don't need no help
 Em
 Gotta be the feeling that scarface felt
 F
 Stuntin go wild can't handle this plan
 X 
 Life of the club arrogant like yeah!
 C
 Top like money all the girls just melt
 C/E 
 Want too many, all know me like Twelve
 F
 Look like cash and they all just stare
 Bottles, Models, standin on chairs

 Am  
 Fall out cuz that's the business
  C/E
 All out it's so ridiclous
 F
 Zone out so much attention
 Scream out I'm in the building (hey! )
 Am
 They watchin I know this
 C/E
 I'm rockin I'm rolling
 F
 I'm holding, I know it
 You know it


--CHORUS 2---  [pick]
*           C
 You know I know how
    Cmaj7                       F
 To make em stop and stare as I zone out
                               C 
 The club can't even handle me right now
 C/E                            F
 Watchin you watchin me we I go all out
                               Am         C            F
 The club can't even handle me right now (yea-e-a-ah) (yea-e-a-ah)
                               Am         C            F
 The club can't even handle me right now (yea-e-a-ah) (yea-e-a-ah)


 ---VERSE 2---
 C
 Hey
 Still feelin myself I'm like outta control
 Em 
 Can't stop now more shots lets go
 F
 Ten more rounds til I get a KO
  X
 Paparazzi trying to make me pose
 C
 Came to party 'til I can no more
 Em 
 Celebrate coz that's all I know
 F
 Tip the groupies takin off their clothes
 Grand finale' like superbowl

 Am       
 Go hard, I run the show
 C/E
 That's right wild out got money to blow
 F
 More light more ice when I walk in the door

 No hype I do it big all over the globe

 Yeah! 
Am
 I said it
 Go tell it
C/E
 Confetti
 Who ready?
F
 I'm ready!
 You ready!
 Lets get it! 


---CHORUS 2---
*           C
 You know I know how
    Cmaj7                       F    
 To make em stop and stare as I zone out
                               C
 The club can't even handle me right now
 C/E                          F
 Watchin you watchin me  I go all out
                               Am         
 The club can't even handle me right now 
 (Put your hands up! )
C/E
 (Put your hands up! )
F
 (Put your hands up! )
 The club can't even handle me right now 
Am
 (Put your hands up! )
C
 (Put your hands up! )
F
 (Put your hands up! )


 ---VERSE 2---
 C
 You got me watchin now (hey)
 Got my attention now (hey)
 Got everybody in the club wanting to know now
Am
 I am a ladies man
C/E
 Come and be my lady and...
F
 We can ball, soo, ahhhhhh

 C
 Bring ya body here let me switch up the atmosphere
 Take you up out of this club and in my new lim'
 Am                         
 Fly you all around the world
 C/E
 Wha' chu want baby girl
 F
 Are you ready to go... now!


---ENDING---
*           C
 You know I know how
    Cmaj7                       F
 To make em stop and stare as I zone out
                               C
 The club can't even handle me right now
 C/E                            F
 Watchin you watchin me we I go all out
                               Am         
 The club can't even handle me right now 
 (Put your hands up! )
CMaj7
 (Put your hands up! )
F
 (Put your hands up! )
                               Am
 The club can't even handle me right now

 (Put your hands up! )
C/E
 Lets celebrate now
F
 (Put your hands up! )

 You know who shut it down
Suggest correction
Give kudos to tab author, rate the tab!
1 2 3 4 5
comments
print report bad tab
guest
You may want to rate the tab now too:
select rating
Wanna post a correction for this tab? Suggest correction