Oops, an error
Loading. Please wait.

Good Feeling Bass Tab

version 1
version 1

Whole song

Interactive

7,616 views 3 this week
no commentswrite comment
1 2 3 4 5
2 more votes to show rating
add to favorites
launch autoscroll
font size
0
reset
guitar tuner
Autoscroll
slow
fast
+/-
esc
set tempo
stop
Help us to improve Ultimate-Guitar.com Take our survey!
×
Author
Difficulty
Flo Rider - Good Feeling // Avicii - Levels

In here is everything youll need to play these songs, They are more or less the same 
song except
the bass lines are slightly differnt...
However both bass lines can be used in either song and sound good!


Trying to write this out as best I can but if you take a look here...

http://www.youtube.com/watch?v=GRflZqOt-1w

Youll find me playing all these bass parts to the same song, Should help make sense of 
it :)




Flo Rider

Part 1

G|----------------------------------|
D|----------------------------------|
A|-4-4-4-7-7-7-7-7------------------|
E|-----------------7-7-7-5-5-5-5-7--|


Main Riff

G|-----------------------------------------------------------|
D|-----------------------------------------------------------|
A|-4-4---7-7-7------------------4-4--7-7-7-------------------|
E|--------------7-7-7--5-5-5--7-------------7-7-7--5-5-5--7--|


Before breakdown

G|--------------------------------------------------------------------------|
D|--------------------------------------------------------------------------|
A|-4-4-4-7-7-7-7-7----------------------------------------------------------|
E|-----------------7-7-7-7-7-7-7-7-7-7-7-7-7-7-7-7-19-19-19-19-19-19-19-19--|


                                                   ^ Sliding up to the 19th dosnt happen 
in the
                                                   | song so you can keep playing the 
7th but it gives
                                                   | it a real cool build up
Break Down


4 String        5 String

G|------        G|------|
D|------   or   D|------|
A|-4----        A|------|
E|------        E|------|
                B|-2----|





Avicii


Main Riff


G|-----6----9---9--------------6-4-----|---6----9---9------------6-4-------|
D|-----------------------9---------6-4-|---------------------9-------6-4---|
A|-4-4----7---7------------------------|-4----7---7------------------------|
E|-----------------7-7-7----5----------|---------------7-7-7---5-----------|


On this one, Play this 1st part at the start and then keep repeating the second bit!

Then on the last one before it goes in to the 'good feeling' simply change the last note 
like this...

G|-----6----9---9--------------6-4------|
D|-----------------------9---------6----|
A|-4-4----7---7----------------------4--|
E|-----------------7-7-7----5-----------|



When your not playing the above, you can let these notes ring out...

G|----------------------|
D|----------------------|
A|-4-----7--------------|
E|-------------7-----5--|



Would be awesome if you could subscribe to me on youtube and let me know how you got on 
with this tab, Or join me on facebook here...


www.facebook.com/HarryHopkinsonBass


Have fun with it :D
Suggest correction
Give kudos to tab author, rate the tab!
1 2 3 4 5
comments
print report bad tab
guest
You may want to rate the tab now too:
select rating
Wanna post a correction for this tab? Suggest correction