Oops, an error
Loading. Please wait.

Low Bass Tab

version 1
version 1

Whole song

Interactive

8,546 views 1 this week
3 commentsread comments
1 2 3 4 5
x 4
add to favorites
launch autoscroll
font size
0
reset
guitar tuner
Autoscroll
slow
fast
+/-
esc
set tempo
stop
Help us to improve Ultimate-Guitar.com Take our survey!
×
Author
Difficulty
novice
FLO RIDA FT. T-PAIN - LOW [TRAVIS BARKER REMIX]

TUNING: Eb A D G


[INTRO] X2

G |----------------|----------------|----------------|----------------|
D |----------------|----------------|----------------|----------------|
A |----------------|----------------|----------------|----------------| 
Eb|----------------|----------------|0~--------------|----------------|


[CHORUS]

G |----------------|----------------|----------------|----------------|
D |----------------|----------------|----------------|----------------|
A |----------------|----------------|----------------|----------------|
Eb|0-0-0-0-0-0-0-0-|0-0-0-0-0-0-0-0-|0-0-0-0-0-0-0-0-|0-0-0-0-0-0-0-0-|

G |----------------|----------------|----------------|----------------|
D |----------------|----------------|----------------|----------------|
A |----------------|----------------|4-4-4-4-4-4-4-4-|----------------|
Eb|3-3-3-3-3-3-3-3-|3-3-3-3-3-3-3-3-|----------------|5-5-5-5-5-5-5-5-|

G |----------------|----------------|----------------|----------------|
D |----------------|----------------|----------------|----------------|
A |----------------|----------------|----------------|----------------|
Eb|0-0-0-0-0-0-0-0-|0-0-0-0-0-0-0-0-|0-0-0-0-0-0-0-0-|0-0-0-0-0-0-0-0-|

G |----------------|----------------|----------------|----------------|
D |----------------|----------------|----------------|----------------|
A |----------------|----------------|4-4-4-4-4-4-4-4-|----------------|
Eb|3-3-3-3-3-3-3-3-|3-3-3-3-3-3-3-3-|----------------|5~--------------|


[VERSE 1]

G |----------------|----------------|----------------|----------------|
D |----------------|----------------|----------------|----------------|
A |----------------|----------------|----------------|----------------|
Eb|0-0-0-0-0-0-0-0-|0-0-0-0-0-0-0-0-|0-0-0-0-0-0-0-0-|0-0-0-0-0-0-0-0-|

G |----------------|----------------|----------------|----------------|
D |----------------|----------------|----------------|----------------|
A |----------------|----------------|4-4-4-4-4-4-4-4-|----------------|
Eb|3-3-3-3-3-3-3-3-|3-3-3-3-3-3-3-3-|----------------|5---------------|

G |----------------|----------------|----------------|----------------|
D |----------------|----------------|----------------|----------------|
A |----------------|----------------|----------------|----------------|
Eb|0-0-0-0-0-0-0-0-|0-0-0-0-0-0-0-0-|0-0-0-0-0-0-0-0-|0-0-0-0-0-0-0-0-|

G |----------------|----------------|----------------|----------------|
D |----------------|----------------|----------------|----------------|
A |----------------|----------------|4-4-4-4-4-4-4-4-|----------------|
Eb|3-3-3-3-3-3-3-3-|3-3-3-3-3-3-3-3-|----------------|5~--------------|


[CHORUS]

G |----------------|----------------|----------------|----------------|
D |----------------|----------------|----------------|----------------|
A |----------------|----------------|----------------|----------------|
Eb|0-0-0-0-0-0-0-0-|0-0-0-0-0-0-0-0-|0-0-0-0-0-0-0-0-|0-0-0-0-0-0-0-0-|

G |----------------|----------------|----------------|----------------|
D |----------------|----------------|----------------|----------------|
A |----------------|----------------|4-4-4-4-4-4-4-4-|----------------|
Eb|3-3-3-3-3-3-3-3-|3-3-3-3-3-3-3-3-|----------------|5-5-5-5-5-5-5-5-|

G |----------------|----------------|----------------|----------------|
D |----------------|----------------|----------------|----------------|
A |----------------|----------------|----------------|----------------|
Eb|0-0-0-0-0-0-0-0-|0-0-0-0-0-0-0-0-|0-0-0-0-0-0-0-0-|0-0-0-0-0-0-0-0-|

G |----------------|----------------|----------------|----------------|
D |----------------|----------------|----------------|----------------|
A |----------------|----------------|4-4-4-4-4-4-4-4-|----------------|
Eb|3-3-3-3-3-3-3-3-|3-3-3-3-3-3-3-3-|----------------|5~--------------|


[VERSE 2]

G |----------------|----------------|----------------|----------------|
D |----------------|----------------|----------------|----------------|
A |----------------|----------------|----------------|----------------|
Eb|0~--------------|----------------|0~--------------|----------------|

G |----------------|----------------|----------------|----------------|
D |----------------|----------------|----------------|----------------|
A |----------------|----------------|4-4-4-4-4-4-4-4-|----------------|
Eb|3-3-3-3-3-3-3-3-|3-3-3-3-3-3-3-3-|----------------|5~--------------|

G |----------------|----------------|----------------|----------------|
D |----------------|----------------|----------------|----------------|
A |----------------|----------------|----------------|----------------|
Eb|0-0-0-0-0-0-0-0-|0-0-0-0-0-0-0-0-|0-0-0-0-0-0-0-0-|0-0-0-0-0-0-0-0-|

G |----------------|----------------|----------------|----------------|
D |----------------|----------------|----------------|----------------|
A |----------------|----------------|4-4-4-4-4-4-4-4-|----------------|
Eb|3-3-3-3-3-3-3-3-|3-3-3-3-3-3-3-3-|----------------|5~--------------|


[CHORUS]

G |----------------|----------------|----------------|----------------|
D |----------------|----------------|----------------|----------------|
A |----------------|----------------|----------------|----------------|
Eb|0-0-0-0-0-0-0-0-|0-0-0-0-0-0-0-0-|0-0-0-0-0-0-0-0-|0-0-0-0-0-0-0-0-|

G |----------------|----------------|----------------|----------------|
D |----------------|----------------|----------------|----------------|
A |----------------|----------------|4-4-4-4-4-4-4-4-|----------------|
Eb|3-3-3-3-3-3-3-3-|3-3-3-3-3-3-3-3-|----------------|5-5-5-5-5-5-5-5-|

G |----------------|----------------|----------------|----------------|
D |----------------|----------------|----------------|----------------|
A |----------------|----------------|----------------|----------------|
Eb|0-0-0-0-0-0-0-0-|0-0-0-0-0-0-0-0-|0-0-0-0-0-0-0-0-|0-0-0-0-0-0-0-0-|

G |----------------|----------------|----------------|----------------|
D |----------------|----------------|----------------|----------------|
A |----------------|----------------|4-4-4-4-4-4-4-4-|----------------|
Eb|3-3-3-3-3-3-3-3-|3-3-3-3-3-3-3-3-|----------------|5---------------|


[BREAK]

G |----------------|----------------|----------------|----------------|
D |----------------|----------------|----------------|----------------|
A |----------------|----------------|----------------|----------------|
Eb|0-0-0-0-0-0-0-0-|0-0-0-0-0-0-0-0-|0-0-0-0-0-0-0-0-|0-0-0-0-0-0-0-0-|

G |----------------|----------------|----------------|----------------|
D |----------------|----------------|----------------|----------------|
A |----------------|----------------|4-4-4-4-4-4-4-4-|----------------|
Eb|3-3-3-3-3-3-3-3-|3-3-3-3-3-3-3-3-|----------------|5-5-5-5-5-5-5-5-|

G |----------------|----------------|----------------|----------------|
D |----------------|----------------|----------------|----------------|
A |----------------|----------------|----------------|----------------|
Eb|0-0-0-0-0-0-0-0-|0-0-0-0-0-0-0-0-|0-0-0-0-0-0-0-0-|0-0-0-0-0-0-0-0-|

G |----------------|----------------|----------------|----------------|
D |----------------|----------------|----------------|----------------|
A |----------------|----------------|4-4-4-4-4-4-4-4-|----------------|
Eb|3-3-3-3-3-3-3-3-|3-3-3-3-3-3-3-3-|----------------|5-5-5-5-5-------|


[CHORUS]

G |----------------|----------------|----------------|----------------|
D |----------------|----------------|----------------|----------------|
A |----------------|----------------|----------------|----------------|
Eb|----------------|----------------|----------------|----------------|

G |----------------|----------------|----------------|----------------|
D |----------------|----------------|----------------|----------------|
A |----------------|----------------|----------------|----------------|
Eb|----------------|----------------|----------------|--------12/-----|

G |----------------|----------------|----------------|----------------|
D |----------------|----------------|----------------|----------------|
A |----------------|----------------|----------------|----------------|
Eb|0-0---0-0---0-0-|--0-0---0-0-0---|0-0---0-0---0-0-|--0-0---0-0-0---|

G |----------------|----------------|----------------|----------------|
D |----------------|----------------|----------------|----------------|
A |----------------|----------------|4-4---4-4---4-4-|----------------|
Eb|3-3---3-3---3-3-|--3-3---3-3-3---|----------------|--5-5---5-5-5---|


[OUTRO] X2

G |----------------|----------------|----------------|----------------|
D |----------------|----------------|----------------|----------------|
A |----------------|----------------|----------------|----------------|
Eb|0-0---0-0---0-0-|--0-0---0-0-0---|0-0---0-0---0-0-|--0-0---0-0-0---|

G |----------------|----------------|----------------|----------------|
D |----------------|----------------|----------------|----------------|
A |----------------|----------------|4-4---4-4---4-4-|----------------|
Eb|3-3---3-3---3-3-|--3-3---3-3-3---|----------------|--5-5---5-5-5---|


[END]

G |----------------|----------------|----------------|----------------|
D |----------------|----------------|----------------|----------------|
A |----------------|----------------|----------------|----------------|
Eb|0~--------------|----------------|----------------|----------------|
Suggest correction
comments
print report bad tab
3 comments total.
0 reply
drew233 10 Apr 29, 2008 04:18 AM

thats bad dude weak

0 reply
austin1303 54 Apr 30, 2008 01:00 PM

how?

0 reply
RKDavid 10 Feb 05, 2009 11:23 PM

sounds good to me. thanks dude.

guest
You may want to rate the tab now too:
select rating
Wanna post a correction for this tab? Suggest correction