Oops, an error
Loading. Please wait.

Low Tab

version 1
version 1

Intro

Interactive

7,684 views 9 this week
1 commentread comment
1 2 3 4 5
accurate
x 5
add to favorites
launch autoscroll
font size
0
reset
how to read this tab
guitar tuner
Tab Pro tools
  • play this tab
  • loop segment
  • change instrument
  • show fretboard
  • metronome
×
Best way to learn
"Low"
Autoscroll
slow
fast
+/-
esc
set tempo
stop
Basically this is the intro which I think pretty much is what most guys want to hear.

e|---------------------------------------------------------------------------|
B|---------------------------------------------------------------------------|
G|---------------------------------------------------------------------------|
D|---------8-8-8-9-8-9-8-8-6-6-4-4-------------------------------------------|
A|--6-6-6--------------------------6-----------------------------------------|
E|---------------------------------------------------------------------------|

Repeat 2x

e|---------6-6-6-7-6-7-6-6-4-4-2-2-------------------------------------------|
B|--4-4-4--------------------------4-----------------------------------------|
G|---------------------------------------------------------------------------|
D|---------------------------------------------------------------------------|
A|---------------------------------------------------------------------------|
E|---------------------------------------------------------------------------|

Repeat 2x

Mostly this is what I hear when bands have gigs and play this song. This is my 1st tab, 
be nice:p
comments
print report bad tab
1 comment total.
0 reply
petieboy wrote on March 28 2009, 12:00 pm

not at all right

I want to post or [tab]
guest
You may want to rate the tab now too:
select rating
Please do not post tabs as comments. Select "correction" instead!