Oops, an error
Loading. Please wait.

Low Tab

version 1
version 1

Interactive

21,348 views 3 this week
2 commentsread comments
1 2 3 4 5
worth learning
x 4
add to favorites
launch autoscroll
font size
0
reset
how to read this tab
guitar tuner
Tab Pro tools
  • play this tab
  • loop segment
  • change instrument
  • show fretboard
  • metronome
×
Best way to learn
"Low"
Autoscroll
slow
fast
+/-
esc
set tempo
stop
Contributor
Difficulty
novice
FLO RIDA FT. T-PAIN - LOW [TRAVIS BARKER REMIX]

STANDARD TUNING: EADGBe


[INTRO]

e|----------------|----------------|----------------|----------------|
B|----------------|----------------|----------------|----------------|
G|----------------|----------------|----------------|----------------|
D|--------8-----8-|----------------|--------8-----8-|----------------|
A|------6---------|----------------|6-----6---------|----------------|
E|----------------|----------------|----------------|----------------|

e|----------------|----------------|----------------|----------------|
B|----------------|----------------|----------------|----------------|
G|----------------|----------------|----------------|----------------|
D|--------8-----8-|----------------|--------8-----8-|----------------|
A|6-----6---------|----------------|6-----6---------|----------------|
E|----------------|----------------|----------------|----------------|


[CHORUS/VERSE CHORDS] - CHORDS DURING CHORUS'S AND MAYBE VERSES?  LISTEN TO THE SONG FOR 
STRUM PATTERN.

  D#/Eb

e|----------------|----------------|----------------|----------------|
B|----------------|----------------|----------------|----------------|
G|8---------------|8---------------|8---------------|8---------------|
D|8---------------|8---------------|8---------------|8---------------|
A|6---------------|6---------------|6---------------|6---------------|
E|----------------|----------------|----------------|----------------|

  F#/Gb                             C#/Db            G#/Ab

e|----------------|----------------|----------------|----------------|
B|----------------|----------------|----------------|----------------|
G|----------------|----------------|6---------------|----------------|
D|4---------------|4---------------|6---------------|6---------------|
A|4---------------|4---------------|4---------------|6---------------|
E|2---------------|2---------------|----------------|4---------------|


[MAIN RIFF] - PLAYED THROUGHOUT, LISTEN TO THE SONG TO HEAR WHEN ITS PLAYED.

e|----------------|----------------|----------------|----------------|
B|----------------|----------------|----------------|----------------|
G|----------------|----------------|----------------|----------------|
D|--------8-----8-|6-----6-4---4---|--------8-----8-|6-----6-4---4---|
A|6-----6---------|--------------8-|6-----6---------|--------------8-|
E|----------------|----------------|----------------|----------------|


[END]

e|----------------|----------------|----------------|----------------|
B|----------------|----------------|----------------|----------------|
G|----------------|----------------|----------------|----------------|
D|----------------|----------------|----------------|----------------|
A|6~--------------|----------------|----------------|----------------|
E|----------------|----------------|----------------|----------------|
comments
print report bad tab
2 comments total.
0 reply
ppjjqq wrote on May 3 2008, 08:19 pm

its crap beive me

0 reply
skate_rocker wrote on May 4 2008, 02:52 pm

yup

I want to post or [tab]
guest
You may want to rate the tab now too:
select rating
Please do not post tabs as comments. Select "correction" instead!