Oops, an error
Loading. Please wait.

Low Tab

version 2
version 2

Interactive

13,784 views 1 this week
1 commentread comment
1 2 3 4 5
x 4
add to favorites
launch autoscroll
font size
0
reset
how to read this tab
guitar tuner
Autoscroll
slow
fast
+/-
esc
set tempo
stop
Help us to improve Ultimate-Guitar.com Take our survey!
×
Author
Difficulty
intermediate
Here is the main riff play throughout most of the song


e|----------6-6-6-7-6-7-6-6-5-5-------------------------------|
b|----4-4-4-----------------------7-6-------------------------|
g|------------------------------------------------------------|
d|------------------------------------------------------------|
a|------------------------------------------------------------|
e|------------------------------------------------------------|


And The chords are:

e|------------------------------------------------------------ |e
b|----------------------------------------------------------- -|b
g|--8-------------- 11----13-----------------------------------|g
d|--8------11------11----13---------------------------------- -|d
a|--6------11------ 9-----11-----------------------------------|a
e|------- --9--------------------------------------------------|e
      Eb              Db             Gb           Ab


                                Eb
Shawty had them Apple Bottom Jeans [Jeans]
Eb
Boots with the fur [With the fur]
Eb
The whole club was lookin at her
Db
She hit the flo [She hit the flo]
Db
Next thing you know
                     Gb                        Ab
Shawty got low low low low low low low low


And repeat that chord pattern throughout the song
Suggest correction
comments
print report bad tab
1 comment total.
0 reply
uketar701 10 May 10, 2014 09:16 AM

Chords sound good, but the riff is slightly wrong, id say

e|----------6-6-6-7-6-7-6-6-4-4-------------------------------|
b|----4-4-4-----------------------7-4-------------------------|
g|------------------------------------------------------------|
d|------------------------------------------------------------|
a|------------------------------------------------------------|
e|------------------------------------------------------------|

although i'm just a beginner.

guest
You may want to rate the tab now too:
select rating
Wanna post a correction for this tab? Suggest correction