Oops, an error
Loading. Please wait.

Low Tab

version 4
version 4

Interactive

801 views 1 this week
no commentswrite comment
1 2 3 4 5
3 more votes to show rating
add to favorites
launch autoscroll
font size
0
reset
how to read this tab
guitar tuner
Autoscroll
slow
fast
+/-
esc
set tempo
stop
Help us to improve Ultimate-Guitar.com Take our survey!
×
Author
Difficulty
Tuning
novice
D A D G B E
There's not really any guitar in this song, but I saw Simple plan play it live, so I 
to put all parts up.


Main riff goes like:

e|------------------------------------------------------------|
B|------------------------------------------------------------|
G|------------------------------------------------------------|
D|---------8-8-8-9-8-9-8-8-6-6-6-4-4--------------------------|
A|---6-6-6----------------------------------------------------|
D|------------------------------------------------------------|


Then it goes higher, I think like this (or in any variation u like to play it)

e|----------6-6-6-7-6-7-6-6-5-5-------------------------------|
B|----4-4-4-----------------------7-7-------------------------|
G|------------------------------------------------------------|
D|------------------------------------------------------------|
A|------------------------------------------------------------|
D|------------------------------------------------------------|


Next part:

e|------------------------------------------------------------|
B|------------------------------------------------------------|
G|------------------------------------------------------------|
D|--------8-8-6-6-4-6-4---------------------------------------|
A|----6-6-----------------------------------------------------|
D|------------------------------------------------------------|


And some chords:

e|------------------------------------------------------------|
B|------------------------------------------------------------|
G|--------------------6---------------------------------------|
D|--1--------4--------6--------6------------------------------|
A|--1--------4--------4--------6------------------------------|
D|--1--------4-----------------6------------------------------|

That's it! Play and enjoy
Suggest correction
Give kudos to tab author, rate the tab!
1 2 3 4 5
comments
print report bad tab
guest
You may want to rate the tab now too:
select rating
Wanna post a correction for this tab? Suggest correction