Oops, an error
Loading. Please wait.

Right Round Tab

version 1
version 1

Whole song

Interactive

19,027 views 15 this week
1 commentread comment
1 2 3 4 5
please rate
add to favorites
launch autoscroll
font size
0
reset
how to read this tab
guitar tuner
Autoscroll
slow
fast
+/-
esc
set tempo
stop
Help us to improve Ultimate-Guitar.com Take our survey!
×
this is better then justs the open choard 
pregresions people put up but i dont have
a lead part for when he starts raping 
after the whole down down thing bc i am 
not gona spend my time trying to figure 
something out that i ll never play more 
then 2 times in my life so hopes this 
help you 

choard progretion Am-C-G-Am-D-G-Am

Guitar 1

E----------8-8---10-8-------10-8-------10-8-----|
B-10-10-10-----8------10-10------8-8-8----------|
G-----------------------------------------------|
D-----------------------------------------------|
A-----------------------------------------------|
E-----------------------------------------------|

Guitar 2
   Am       C        G        Am       D        G         Am
E---------------------------------------------------------------|
B---------------------------------------------------------------|
G---------------------------------------------------------------|
D-7-7-7-7--5-5-5-5-----------7-7-7-7--7-7-7-7-----------7-7-7-7-|
A-7-7-7-7--3-3-3-3--5-5-5-5--7-7-7-7--5-5-5-5--5-5-5-5--7-7-7-7-|
E-------------------3-3-3-3--------------------3-3-3-3----------|
Suggest correction
Give kudos to tab author, rate the tab!
1 2 3 4 5
comments
print report bad tab
1 comment total.
0 reply
JorHelloween 10 wrote on August 21 2009, 11:25 am

E----------8-8---10-8-------10-8-------10-8-----|
B-10-10-10-----8------10-10------8-8-10---------|
G-----------------------------------------------|
D-----------------------------------------------|
A-----------------------------------------------|
E-----------------------------------------------|

guest
You may want to rate the tab now too:
select rating
Please do not post tabs as comments. Select "correction" instead!