Oops, an error
Loading. Please wait.

Whistle Bass Tab

version 1
version 1

Whole song

Interactive

5,787 views 12 this week
no commentswrite comment
1 2 3 4 5
please rate
add to favorites
launch autoscroll
font size
0
reset
guitar tuner
Tab Pro tools
  • play this tab
  • loop segment
  • change instrument
  • show fretboard
  • metronome
×
Best way to learn
"Whistle"
Autoscroll
slow
fast
+/-
esc
set tempo
stop
Contributor
Difficulty
intermediate
                                 Flo Rida - Whistle [Bass Tab]

Standard Tuning - E,A,D,G

~ = Let Ring [Legato]          Throughout the whole song the main notes are 
. = Short Note [Staccato]      "A","F","C" and "G". 
h = Hammer on 
p = Pull off
* = Harmonic note
\ = Slide down
Intro

Until almost half way through the intro there is no bass but it comes in at " Put 
your lips together..." 
Its just quavers at every beat. The second time you play the bar don't play the g's and the end.
            a            f            c            g             x2
G:------------------------------------------------------------------:
D:------------------------------------------------------------------:
A:----------0-0-0-0-------------------3-3-3-3-----------------------:
E:-----------------------1-1-1-1-------------------3-3-3-3----------:

Intro 2 [second part of the intro]

The second intro consists of every first beat of a bar you play an "A" and a "C".              
If you have a fuzz effect then use that here.
           a      c        x4
G:-----------------------------:
D:-----------------------------:
A:-----------------3-----------:
E:----------5------------------:

Verse 1 

Part 1:In this verse for 8 bars it's exactly the same as the second part of the intro. 
Part 2:Then there is the bit when the electric guitar comes in and that lasts for 4 bars. 
Part 3:After that there is a short bit [4 bars] where there is no bass exactly like the intro 
and then you come in with the "aaaa ffff cccc gggg"
This applies also for the second verse.
             a      c                                        
Part 1:      .      .        x4                        
G:------------------------------:                      
D:------------------------------:          
A:------------------3-----------:   
E:-----------5------------------:   

Part 2:      ~  ..      ..  .      ~  ..      ..  .        x2 
G:------------------------------------------------------------:
D:------------------------------------------------------------:
A:-----------0--00-----------------3--33----------------------:
E:----------------------11--1-----------------33--3-----------:
             a          f          c          g    
                      a           f           c           g        x2   
 ----------- G:---------------------------------------------------------:
   Rest for  D:---------------------------------------------------------:
   4 bars    A:-------0-0-0-0-----------------3-3-3-3-------------------:
 ----------- E:-------------------1-1-1-1-----------------3-3-3-3-------:
[again the second time you play the bar don't play the last four g notes]

Chorus 
[The whistling bit]
If you have a fuzz effect use that as well here.
                               x4  
G:-----------2\------5\-----------:
D:--------------------------------:
A:-----------0\------3\-----------:
E:--------------------------------:

Verse 2 
             a       c         x4
G:--------------------------------:
D:--------------------------------:
A:-------------------3\-----------:
E:-----------5\-------------------: 
             a          f          c          g 
G:------------------------------------------------------------:
D:------------------------------------------------------------:
A:-----------0--00-----------------3--33----------------------:
E:----------------------11--1-----------------33--3-----------:
                      a           f           c           g
 ----------- G:---------------------------------------------------------:
   Rest for  D:---------------------------------------------------------:
   4 bars    A:-------0-0-0-0-----------------3-3-3-3-------------------:
 ----------- E:-------------------1-1-1-1-----------------3-3-3-3-------:

Chorus 2 
                               x4
G:-----------2\------5\-----------:
D:--------------------------------:
A:-----------0\------3\-----------:
E:--------------------------------:
              Bridge                                                x2
 ----------- G:---------------------------------------------------------:
   Rest for  D:---------------------------------------------------------:
   4 bars    A:-------0-0-0-0-----------------3-3-3-3-------------------:
 ----------- E:-------------------1-1-1-1-----------------3-3-3-3-------:
             [don't forget second time you play the bar don't play the g's]

Outro 
                              x12
G:-----------2\------5\-----------:
D:--------------------------------:
A:-----------0\------3\-----------:
E:--------------------------------:
comments
We did not receive enough feedback on this tab! Please rate:
print report bad tab
1 2 3 4 5
I want to post or [tab]
guest
You may want to rate the tab now too:
select rating
Please do not post tabs as comments. Select "correction" instead!