Oops, an error
Loading. Please wait.

Whistle Tab

version 3
version 3

Whole song

Interactive

20,433 views 12 this week
2 commentsread comments
1 2 3 4 5
please rate
add to favorites
launch autoscroll
font size
0
reset
how to read this tab
guitar tuner
Tab Pro tools
  • play this tab
  • loop segment
  • change instrument
  • show fretboard
  • metronome
×
Best way to learn
"Whistle"
Autoscroll
slow
fast
+/-
esc
set tempo
stop
Contributor
Difficulty
intermediate
-----------------------------------------------------------------------------
                             Whistle - Flo Rida
-----------------------------------------------------------------------------
Tabbed by: Tony Nguyen/ Tai Nguyen
E-mail: tai.nguyen1@hotmail.com

Tuning: Standard

This is my first tab and I am only 15, if you have any questions, feel free to 
ask. Listen to the song while playing these tabs to get the right timing. Have fun. :)

The song has 4 chords in it: Am, F, G, C
These 4 chords is all you need to play the whole song. (:
I am going to show the: Intro, Whistle, Melody.

Intro:

    Am          Fm          C           G
e|---------------------------------------------------||
B|--------1-----------1-----------1-----------0------||
G|-----------2-----------2-----------0-----------0---||
D|-----2-----------3-----------2-----------0---------||
A|--0-----------------------3------------------------||
E|--------------1-----------------------3------------||

Alternatively you could just strum the chords. (:

Whistle:
                                                                            
e|---------3/5--3-----3------------------------------||
B|-----------------5-----5--------3/5--3-----3--5----||
G|----------------------------------------5----------||
D|---------------------------------------------------||
A|---------------------------------------------------||
E|---------------------------------------------------||

Melody:
                Am           F          C       G    
e|---------------------------------------------------||
B|----0--0-0--0--1--1--------1--1--------1--3---3----||
G|---------------------2--0--------2--0--------------||  x2
D|---------------------------------------------------||
A|---------------------------------------------------||
E|---------------------------------------------------||
             
             Am           F        C     G                            
e|-----------5--5--3--3---0--------0--3--------------||
B|--0--0--0------------------3--1--------3-----------||
G|---------------------------------------------------||
D|---------------------------------------------------||
A|---------------------------------------------------||
E|---------------------------------------------------||

                Am           F          C    G    
e|---------------------------------------------------||
B|----0--0-0--0--1--1--------1--1--------1---3--0--1-||
G|---------------------2--0--------2--0--------------|| 
D|---------------------------------------------------||
A|---------------------------------------------------||
E|---------------------------------------------------||


OR If you wanna get fancy, you could play it like this:

Play the intro twice. 

              Am           F           C        G                     
e|---------------------------------------------------||
B|--0--0-0--0--1--1--------1--1--------1-----3--3----||
G|-------------2--2--2--0--2--2--2--0--0--------0----||  x2
D|-------------2-----------3-----------2--2----------|| 
A|-------------0-----------------------3-------------||
E|-------------------------1--------------------3----||

             Am          F           C     G
e|-----------5--5--3--3--0--0--------0--3------------||
B|--0--0--0--5-----------1-----3--1--1-----3---------||
G|-----------5-----------2-----------0-----0---------||
D|-----------------------3---------------------------||
A|-----------------------------------3---------------||
E|-----------5-----------------------------3---------||

              Am           F           C    G     Am                  
e|---------------------------------------------------||
B|--0--0-0--0--1--1--------1--1--------1----3--0--1--||
G|-------------2--2--2--0--2--2--2--0--0----0-----2--||
D|-------------2-----------3-----------2----------2--|| 
A|-------------0-----------------------3----------0--||
E|-------------------------1----------------3--------||

Whistle: 

e|--------------5--3--0--3--0-----------0---------0--||
B|--------1-----5-----1-----1-----1-----1--3-1-3--1--||
G|-----------2--5-----2-----0--------0--0--0------2--|| x4
D|-----2--------------3--------2---------------------||
A|--0-----------------------3-----------3---------0--||
E|--------------5--------------------------3---------||

If you notice any mistakes, feel free to email me. This is my first tablature
and I hope you like it. If you like it, please rate it. If you didn't like it, 
give me a lower rating and message me what I did wrong. Thanks. 

Tai Nguyen

************************************

| /   slide up
| \   slide down
| h   hammer-on
| p   pull-off
| ~   vibrato
| +   harmonic
| x   Mute note
| b   Bend
| pb  Pre-bend
| br  Bend release
| pbr Pre-bend release
| brb Bend release bend

************************************
comments
We did not receive enough feedback on this tab! Please rate:
print report bad tab
1 2 3 4 5
2 comments total.
+1 reply
SupaDrumma wrote on October 22 2012, 08:21 pm

This was good! Loved the creativity with "getting fancy!"
Great job :D

0 reply
tonynguyen251 wrote on December 20 2012, 09:03 pm

Thanks. (A) (:

I want to post or [tab]
guest
You may want to rate the tab now too:
select rating
Please do not post tabs as comments. Select "correction" instead!