Oops, an error
Loading. Please wait.

All The Stories But One Bass Tab

399 views 1 this week
no commentswrite comment
1 2 3 4 5
please rate
add to favorites
launch autoscroll
font size
0
reset
guitar tuner
Autoscroll
slow
fast
+/-
esc
set tempo
stop
Help us to improve Ultimate-Guitar.com Take our survey!
×
FTH80:F#C#G#D#; Generated by Fast Tab, do not erase
====================
>From            : Mexipad134
Artist          : Floater
Bass Performance: All the stories but one
Comments:       : love song and band fun to jam
---
Strings: D#,G#,C#,F#
Symbols explanations:
  H: hammer on  P: pull off
  +: slap       .: pop
  \: slide up   /: slide down
  --x~~x~~x: triplets
====================

|   e  e  e  e  e  e  e  e  e  e  e  e  e                                        
F#-14H15P14H15P14H15-15-14-12-14-15-15-14----------------------------------------
C#-------------------------------------------------------------------------------
G#-------------------------------------------------------------------------------
D#-------------------------------------------------------------------------------
>  little into to song, make sure the hammer ons are so fast they sound like one note  

                                                                            
|   q  q  q  q  e  e                                                             
F#-12-12-12-12-11--9-------------------------------------------------------------
C#-------------------------------------------------------------------------------
G#-------------------------------------------------------------------------------
D#-------------------------------------------------------------------------------

>  the break of silence where the bass comes in                                        
                                      
|   q  q  h  q  q  q  q                                                          
F#--------9----------------------------------------------------------------------
C#-----9--------9--7\-9----------------------------------------------------------
G#--7--------7-------------------------------------------------------------------
D#-------------------------------------------------------------------------------
>  the verse part                                                                      
        
|   q  q  h  q  q  h  q  q  h                                                    
F#--------12-------9-------------------------------------------------------------
C#-----11-------10--------9-------------------------------------------------------
G#--9--------8--------7-----7----------------------------------------------------
D#--------------------------------------------------------------------------------
>  funky transition to hard core part                                                  
                            
|   w  e  e  e  e  w  e  e  e  e  w                                              
F#-------------------------------------------------------------------------------
C#-------------------------------------------------------------------------------
G#--7--7--7--6--5--3--3--3--5--6--7----------------------------------------------
D#-------------------------------------------------------------------------------
>   coreness                                                                           
  
|   e  e  e  e  w  w                                                             

F#-------------------------------------------------------------------------------
C#-------------------------------------------------------------------------------
G#--7--7--6--5--3--0-------------------------------------------------------------
D#-------------------------------------------------------------------------------
>   last walk up                                                                       
      

|   w  e  e  e  q  e  q  e  q  e  e  e  e  e  e                                  
F#----11H12P11H12P11H12P11P---12-12-12-12-11--9----------------------------------
C#-------------------------------------------------------------------------------
G#-------------------------------------------------------------------------------
D#--0----------------------------------------------------------------------------
>  transition back to verse or last part                                               

                               
|   q  q  q  q  h  q  q  q  q  q  q  q  q  q                                     
F#-------------------------------------------------------------------------------
C#--------------3--------------x-----x--0H-2-------------------------------------
G#-------------------------------------------------------------------------------
D#--0--2--3--0-----0--2--3--0----x----------------------------------------------

>   last part of song, slap part pop and slap ghost notes                              
                                               
|   q  q  q  q  q  q  q  q  q                                                    
F#-------------------------------------------------------------------------------
C#-------------------------------------------------------------------------------
G#-------------------------------------------------------------------------------
D#--0--2--3--0--x--x--x--x--x----------------------------------------------------
>  end hardcore part                                                                   
           
|   q  q  q  q  q                                                                
F#-------------------------------------------------------------------------------
C#-------------------------------------------------------------------------------
G#-------------------------------------------------------------------------------
D#--0--2--3--0--0----------------------------------------------------------------
>  ending fades out                                                                    
          
 there it is, i hope i did it correctly get cd for time. have fun jamming. Mexipad134
Espinosa@teleport.com

Suggest correction
What's this?
You can suggest a correction to this tab. Community and Mods will review your correction and vote to approve or reject it.
comments
We did not receive enough feedback on this tab! Please rate:
print report bad tab
1 2 3 4 5
guest
You may want to rate the tab now too:
select rating
Please do not post tabs as comments. Select "correction" instead!