Oops, an error
Loading. Please wait.

An Apology Tab

949 views 1 this week
no commentswrite comment
1 2 3 4 5
please rate
add to favorites
launch autoscroll
font size
0
reset
how to read this tab
guitar tuner
Autoscroll
slow
fast
+/-
esc
set tempo
stop
Help us to improve Ultimate-Guitar.com Take our survey!
×
Author
"An Apology"
by Floater
from the album "Stone By Stone"
tabbed by Redemption Matt [matt@theredemption.us]

Tune down 1/2 step.

Main riff:
e|-----------------|-----------------|-----------------|-----------------|
B|-----------------|-----------------|-----------------|-----------------|
G|--7--4-----------|--2--4-----------|--7--4-----------|--2--4-----------|
D|--7--4----4-x-x--|--2--4----4-x-x--|--7--4----4-x-x--|--2--4----4-x-x--|
A|--5--2----2-x-x--|--0--2----2-x-x--|--5--2----2-x-x--|--0--2----2-x-x--|
E|-----------------|-----------------|-----------------|-----------------|

e|-----------------|-----------------|-----------------|-----------------|
B|-----------------|-----------------|-----------------|-----------------|
G|--7--4-----------|--2--4-----------|--7--4-----------|--7--9-----------|
D|--7--4----4-x-x--|--2--4----4-x-x--|--7--4----4-x-x--|--7--9----9-x-x--|
A|--5--2----2-x-x--|--0--2----2-x-x--|--5--2----2-x-x--|--5--7----7-x-x--|
E|-----------------|-----------------|-----------------|-----------------|
(see below for fills)


(0:56)
(1:31)
(2:23)
e|--------------------------------------------------------------------------------------|
B|---------------------------------------------13-12------------------------------------|
G|----(7)-------11-12/14-12-11h12p11----11-14---------12----(2)-------------------------|
D|----(7)----12---------------------------------------------(2)----11-12-12/14-12-11----|
A|----(5)---------------------------------------------------(0)-------------------------|
E|--------------------------------------------------------------------------------------|

(1:39)
(2:31)
Clean tone/acoustic:
e|---0---------0---------0---------0---------0---------0-------|---0---|
B|---0---------0---------0---------0---------0---------0-------|---0---|
G|---8---------1---------8---------1---------8---------1-------|---6---|
D|---9---------2---------9---------2---------9---------2-------|---7---|
A|---9---------2---------9---------2---------9---------2-------|---7---|
E|---7---------0---------7---------0---------7---------0-------|---5---|

(2:05)
e|----------------------------------|
B|----------------------------------|
G|---4~~~~~-------------------------|
D|---4~~~~~(let ring & feedback)----|
A|---2~~~~~-------------------------|
E|----------------------------------|

(2:14)
e|-------------|--------------|----------------------|
B|-------------|--------------|----------------------|
G|---2/4~~~~---|----2/4~~~~---|----------------------|
D|---2/4~~~~---|----2/4~~~~---|---4-4-4-4-4-4-4-4----|
A|---0-2~~~~---|----0-2~~~~---|---2-2-2-2-2-2-2-2----|
E|-------------|--------------|----------------------|
                                pm---------------|

(2:49)
Strumming (clean):
e|---0---------0---------0---------0---------0---------0-----|---0---|
B|---0---------0---------0---------0---------0---------0-----|---0---|
G|---8---------1---------8---------1---------8---------1-----|---6---|
D|---9---------2---------9---------2---------9---------2-----|---7---|
A|---9---------2---------9---------2---------9---------2-----|---7---|
E|---7---------0---------7---------0---------7---------0-----|---5---|

(3:06)
e|-----------------------------------------------------|-------------------------------------------|
B|-----------------------------------------------------|-------------------------------------------|
G|-----------------------------------------------------|-------------------------------------------|
D|--4---4---4---4---4---4---4---4---4---4----(play 3x)-|--4---------------4---4---4---4---4---4----|
A|--0h2-2---0h2-2---0h2-2---0h2-2---0h2-0h2------------|--0h2-2---5p2-2---0h2-2---0h2-2---0h2-0h2--|
E|-----------------------------------------------------|-------------------------------------------|

This riff played until end of song (palm mute last time):
e|------------------|
B|------------------|
G|---4-4-4-5--5-4---|
D|---4-4-4-5--5-4---|
A|---2-2-2-3--3-2---|
E|------------------|

FILLS:

(0:35)
e|---------------------------------------|
B|---------------------------------------|
G|--x-x-x-x-7-7-7---x-7-7-7---7-x-x-x-x--|
D|--x-x-x-x-7-7-7---x-7-7-7---7-x-x-x-x--|
A|---------------------------------------|
E|---------------------------------------|

(1:10)
e|---------------------------------------|
B|----------9p7-------9p7----------------|
G|--x-x-x-x-9p7-7---x-9p7-7---7-x-x-x-x--|
D|--x-x-x-x-9p7-7---x-9p7-7---7-x-x-x-x--|
A|---------------------------------------|
E|---------------------------------------|

(2:03)
e|---------------------------------------|
B|----------9p7-7-----9br-9------7h9p7---|
G|--x-x-x-x-9p7-7---x-9br-9----x-7h9p7---|
D|--x-x-x-x-9p7-7---x-9br-9----x-7h9p7---|
A|---------------------------------------|
E|---------------------------------------|

Suggest correction new What's this?
You can suggest a correction to this tab. Community and Mods will review your correction and vote to approve or reject it.
comments
We did not receive enough feedback on this tab! Please rate:
print report bad tab
1 2 3 4 5
guest
You may want to rate the tab now too:
select rating
Please do not post tabs as comments. Select "correction" instead!