Oops, an error
Loading. Please wait.

Danny Boy Tab

3,059 views 1 this week
1 commentread comment
1 2 3 4 5
please rate
add to favorites
launch autoscroll
font size
0
reset
how to read this tab
guitar tuner
Autoscroll
slow
fast
+/-
esc
set tempo
stop
Help us to improve Ultimate-Guitar.com Take our survey!
×
Author
Artist: Floater
Song: The Sad Ballad Of Danny Boy

~ = Let Ring
/ = Slide Up
h = Hammer On
p = Pull Off

Intro:
E|---------------------------------------------------------------------->
B|8h9p8--8h11p8h9p8--8h9p8--8h9p8h11----8h9p8------8h11p8h9p8----9h10p9->
G|---------------------------------------------------------------------->
D|-7/8/9---------------------------------------------------------------->
A|-5/6/7---------------------------------------------------------------->
E|---------------------------------------------------------------------->

E|--------|
B|--------|
G|--------|
D|-7/8/9--|
A|-5/6/7--|
E|--------|

Verse:

  "That's right my name is Danny Boy and I like to drink at night..."
E|------------------------------------------------------------------|
B|-----------------------------------------------------------8h9p8--|
G|------------------------------------------------------------------|
D|------------------------------------------------------------------|
A|------------------------------------------------------------------|
E|------------------------------------------------------------------|

  "I go down to the pub where I buy myself a pint or three....."
E|------------------------------------------------------------------|
B|------------------------------------------------------8h9p8h11----|
G|------------------------------------------------------------------|
D|------------------------------------------------------------------|
A|------------------------------------------------------------------|
E|------------------------------------------------------------------|

  "I like to go out drinking, 'cause beer it is my life....."
E|------------------------------------------------------------------|
B|---------------------------------------------------8h9p8----------|
G|------------------------------------------------------------------|
D|------------------------------------------------------------------|
A|------------------------------------------------------------------|
E|------------------------------------------------------------------|

Next Part:
E|-----------9----------9------------9--|
B|--9-9-9h11---9-9-9h11-----9-9-9h11----|
G|--------------------------------------|
D|--------------------------------------|
A|--------------------------------------|
E|--------------------------------------|

Chorus:
E|----------|
B|----------|
G|----------|
D|-222--22--|
A|-222--22--|
E|-000--00--|

Verse Again
Chorus

After 2nd Chorus:
E|----------------------------------------------|
B|----------------------------------------------|
G|----------------------------------------------|
D|-9---8-5~--9---8-6~--9---8-7~--9---8-8~-------|
A|-9---8-5~--9---8-6~--9---8-7~--9---8-8~-------|
E|-7-0-6-3~--7-0-6-4~--7-0-6-5~--7-0-6-6~-------|

That's it, enjoy

Questions or Comments?
vanceaase67@hotmail.com
Suggest correction new What's this?
You can suggest a correction to this tab. Community and Mods will review your correction and vote to approve or reject it.
comments
We did not receive enough feedback on this tab! Please rate:
print report bad tab
1 2 3 4 5
1 comment total.
0 reply
dyingmind 16 wrote on April 7 2007, 09:18 pm

Song is in drop-D tuning.

guest
You may want to rate the tab now too:
select rating
Please do not post tabs as comments. Select "correction" instead!