Oops, an error
Loading. Please wait.

On The Table Tab

663 views 1 this week
no commentswrite comment
1 2 3 4 5
please rate
add to favorites
launch autoscroll
font size
0
reset
how to read this tab
guitar tuner
Autoscroll
slow
fast
+/-
esc
set tempo
stop
Help us to improve Ultimate-Guitar.com Take our survey!
×
Author
Difficulty
novice
now i didnt tab this song
its from the floater fan site
so dont give me any credit
i just thought UG was at a loss without more floater


-Intro:
e|------------------------------------------------------|
B|------------------------------------------------------|
G|------------------------------------------------------|
D|--7--7-7-7-7--7-7-7-7-7-7/9-9-9-9-9/11-11-11-11-11\---|
A|--0--0-0-0-0--0-0-0-0-0-0-0-0-0-0-0--0--0--0--0--0----|
E|------------------------------------------------------|


e|------------------------------------------------------|
B|------------------------------------------------------|
G|--7--7-7-7-7--7-7-7-7-7-7-6-6-6-6-7-7-7-7-6h7-9-------|
D|--0--0-0-0-0--0-0-0-0-0-0-0-0-0-0-0-0-0-0-0---0-------|
A|------------------------------------------------------|
E|------------------------------------------------------|

-2nd guitar stums these chords:
    A    D
e|-------2-----------------------|
B|--2----3-----------------------|
G|--2----2-----------------------|
D|--2----0-----------------------|
A|--0----------------------------|
E|-------------------------------|

  	  A					   	       D
Yeah you come and you go like a breeze just as fast as you're able
	 A				  			    D
And the last thing that you would ever do is put your cards on the table
     A					  	   D
The glow of the neon shows you're only spinning a fable

                 G		        D
I know what you are... I know what you are

	  A			  	      D
Why does everywhere that you end up feel so crowded?
 A							   D
Used to think you could find peace but you're starting to doubt it
	    A							D
Tell me, if no one ever hears what you say then why don't you shout it?

                 G		      	D
I know what you are... I know what you are

 		         G
and it's scaring me to death
	      D			     	   G
I heard you speak aloud your secret shibboleth
	    A				        G
All of the wisdom of the ancients won't change what's inside of you
	 A				      G
You can close your eyes but that's not gonna take away the view
		 D
I know what you are


(ending chords)

A-D

A-D-A-D-A-D-G


(outro same as intro)


tabed by:
dyingmind@yahoo.com

Suggest correction
What's this?
You can suggest a correction to this tab. Community and Mods will review your correction and vote to approve or reject it.
comments
We did not receive enough feedback on this tab! Please rate:
print report bad tab
1 2 3 4 5
guest
You may want to rate the tab now too:
select rating
Please do not post tabs as comments. Select "correction" instead!