Oops, an error
Loading. Please wait.

Strychnine Chords

667 views 1 this week
no commentswrite comment
1 2 3 4 5
please rate
add to favorites
launch autoscroll
font size
0
reset
transpose
0
reset
display chords
guitar tuner
Tab Pro tools
  • play this tab
  • loop segment
  • change instrument
  • show fretboard
  • metronome
×
Best way to learn
"Strychnine"
Autoscroll
slow
fast
+/-
esc
set tempo
stop
"Strychnine"
by Floater
from the album "Acoustics"
tabbed by dyingmind@yahoo.com

Tune down 1/2 step.

intro
e|-------------------------------------|
B|-------------------12-12-13\---------|
G|--11-11-12\--5-5----0--0--0---12-----|
D|---0--0--0---0-0---------------0-----|
A|-------------------------------------|
E|-------------------------------------|

    D		      C	       G	     D	
I dreamed I saw the ocean and you upon the shore
   D		   C	     G		    D
I knew you were waiting to feel something more
	  D		     C			G		      D
I said, "All of this is ours my love. Come and swim into my stars my love."

	 D		C			G 	D
And we walked into the joint like we owned the place
	  D		     C			G	D
And we learned to hold our heads up high in disgrace
   D			  C	  G			D
Laughing from the power lines, racing through the landmines
  D		    C	    G				D	
Never a moment of doubt, dancing through the slaughterhouse

    C				       D
Stumbling through pleasures much too fast
  C					     D
White knuckle that is golden and strychnine past
  C		   A
Youth is just a treasure...

    A     A#   A    G	  A
e|-----|-----------------------|
B|-----|-----------------------|
G|--6--|--7----6----4-----6----|
D|--7--|--8----7----5-----7----| (play 2x)
A|--7--|--8----7----5-----7----|
E|--5--|--6----5----3-----5----|

	        D
...that won't last

    D			C			G		      D
We recklessly ran, so much stronger than the places we'd gone or the waves we rode upon
	 D	    C				G			D
And we shined on despite all the laws, And we poured our guts into the cause
	  D		  C	       G
And we learned all that burns cannot last

    C					D
Stumbling through our borders much too fast
  C					  D
White knuckle that golden and strychnine past
  C		   A
Youth is just a torture...

    A     A#   A    G	  A
e|-----|-----------------------|
B|-----|-----------------------|
G|--6--|--7----6----4-----6----|
D|--7--|--8----7----5-----7----| (play 2x)
A|--7--|--8----7----5-----7----|
E|--5--|--6----5----3-----5----|

	        D
...that won't last



comments
We did not receive enough feedback on this tab! Please rate:
print report bad tab
1 2 3 4 5
I want to post or [tab]
guest
You may want to rate the tab now too:
select rating
Please do not post tabs as comments. Select "correction" instead!