Oops, an error
Loading. Please wait.

Time Marches On Chords

1,437 views 1 this week
no commentswrite comment
1 2 3 4 5
please rate
add to favorites
launch autoscroll
font size
0
reset
transpose
0
reset
display chords
guitar tuner
Autoscroll
slow
fast
+/-
esc
set tempo
stop
Help us to improve Ultimate-Guitar.com Take our survey!
×
Author
Difficulty
novice
not my tab from the floater fan site

CHORDS:
    D    C    G    F    A
e|--2----0----3----1--------|
B|--3----1----3----1----2---|
G|--2----0----0----2----2---|
D|--0----2----0----3----2---|
A|-------3----2----3----0---|
E|------------3----1--------|

Main riff w/ fills:
Chords in (parenthases) means continue strumming.

     D		      C				    G
e|---2------(2)---|---0----(0)---0---(0)--0-----|---3---(3)---3/5--(5)--5\3-|
B|---3------(3)---|---1----(1)---0h1-(1)--3p1---|---3---(3)---3/5--(5)--5\3-|
G|---2------(2)---|---0----(0)---0---(0)--0-----|---0---(0)---0-------------|
D|---0------(0)---|---2----(2)---2---(2)--2-----|---0---(0)-----------------|
A|----------------|---3----(3)---3---(3)--3-----|---2---(2)-----------------|
E|----------------|-----------------------------|---3---(3)-----------------|

  D				C		      G
You've taken all that you can take. Time marches on again
  D				C		        G
You've broken all that you can break. Time marches on again
  D
Spoken to those who would listen
  C					  G
Taken from those who would give their attention
  C			       C			      G
You quoted Ecclesiastes and you brought all our hope to its knees

[FFFF - FFFF - FF]
  D	   A
Ashes to ashes

[FFFF - FFFF - FF]
  D	      A
and dust to dust

[FFFF - FFFF - FF]
  D		   A
You just keep on hating

[FFFF - FFFF - FF]
  D			A
the whole world if you must

  D  C  		     G
        If you think that's just

  D				  C			  G
Take up that stone and feel its weight. Time marches on again
  D					C		       G
Cry out, "Throw first before it's too late!" Time marches on again
  D					C			G
Run to the shelter of sarcasm and the shield of permanent grin
  D					C					  G
Wrapped in your cloak of superiority so thick that that none of that shit can get in

[FFFF - FFFF - FF]
  D	   A
Ashes to ashes

[FFFF - FFFF - FF]
  D	      A
and dust to dust

[FFFF - FFFF - FF]
  D		   A
You just keep on hating

[FFFF - FFFF - FF]
  D			A
the whole world if you must


If you must...

G C D

If you must...

G C D

G	C	D
Yes everything peaceful
G	  C	      D
and everyone old and gray
G   C	 	  D
Anyone who dares preach love
G	 C	     D
and any kind word I say
G	 C	      D
And any thought of a future
G 		    C		  D
that just might be worth working for
G			  C	   D
I watch you snicker and label US useless
G	C	D
I was once you before.

D C G

I walked out that door

  D				C		     G
You've taken all that you can take. Time marches on again
  D				C			G
You've broken all that you can break. Time marches on again
Suggest correction
Give kudos to tab author, rate the tab!
1 2 3 4 5
comments
print report bad tab
guest
You may want to rate the tab now too:
select rating
Please do not post tabs as comments. Select "correction" instead!