Oops, an error
Loading. Please wait.

Circle In The Square Bass Tab

2,662 views 6 this week
no commentswrite comment
1 2 3 4 5
excellent!
x 4
add to favorites
launch autoscroll
font size
0
reset
guitar tuner
Autoscroll
slow
fast
+/-
esc
set tempo
stop
Help us to improve Ultimate-Guitar.com Take our survey!
×
Author
-----------------------------------------------------------------------------
                       Circle in the Square - Flobots
-----------------------------------------------------------------------------
Tuning: Standard (EADG)
 
Riff A
G|-------------------| 
D|-------4-4-0-3-----|
A|-----2-------------|
E|-------------------| 

Riff B 
G|-------------------| 
D|---4-4-4-7-4-0-3---| 
A|-------------------|
E|-------------------|

Riff C
G|-------------------| 
D|-------------------| 
A|-------------------|
E|--7/----7/----7/---|

Riff D
G|----------------------------| 
D|------5-----7-----5-----7---|
A|---7-----5-----3-----5------|
E|----------------------------|

Riff E
G|----------------------------| 
D|------5-----7-----5---------|
A|---7-----5-----3-----5--0---|
E|----------------------------|


So the song goes like this:

Riff A x3
Riff B x1
Riff A x3
Riff B x1
Riff A x3
(pause)
Riff C x1
(pause)
Riff C x1
(pause)
Riff A x3
Riff B x1
Riff A x3
Riff B x1
Riff D x3
Riff E x1
Riff C x1
(pause)
Riff C x1
(pause)
Riff A x3
Riff B x1
Riff A x3
Riff B x2
Riff D x3
Riff E x1
(pause)
Riff B x1
Riff C x1
(pause)
Riff C
(pause)
Riff E x1
Riff C x1
(pause)
Riff C x1
(pause)
Riff A x3
Riff B x4

And that's it, I hope you found the tab useful.
Don't forget to leave a rating...enjoy!
Suggest correction
comments
print report bad tab
guest
You may want to rate the tab now too:
select rating
Please do not post tabs as comments. Select "correction" instead!