Oops, an error
Loading. Please wait.

Handlebars ukulele

version 1
version 1

Whole song

by Flobots
1,129 views 18 this week
1 commentread comment
1 2 3 4 5
x 5
add to favorites
×
Save as Personal and add changes to this tab that will be seen only by you. Learn more ›
×
You can save this tab as Personal to edit and correct it or add notes. All changes will be seen only by you. Learn more »
launch autoscroll
font size
0
reset
transpose
0
reset
display chords
guitar tuner
backing track
0:00
0:00
edit
Autoscroll
slow
fast
+/-
esc
set tempo
stop
Author
Difficulty
Unregistered
Strumming
There is no strumming pattern for this song yet. and get +5 IQ
A|0-----3-----7-----3----------2------------0----3-----------------|
E|---------------------0----3-----3-----1--------------------------|
C|-----------------------------------0-----------------------------|
G|---------------------------------------------------0---4---7---4-|

A|-----0----3----8----5----8----12----8----3---7----10----7----2---5---7-----|
E|1------------------------------------------------------------------------0-|
C|---------------------------------------------------------------------------|
G|---------------------------------------------------------------------------|

            
            
Suggest correction
Creating personal tab
Creating personal tab
You can edit any tab online and save it as your Personal.

You can edit, replace or remove any tab part or add personal notes – all changes will be seen only by you.

Personal tabs can be accessed anytime from any device, even offline.
Learn more »
comments
print report bad tab
1 comment total.
0 reply
LoarSeagull 44 Jun 23, 2017 09:54 PM

Tuned down to

And its perfect 😁👍🏻

guest
Wanna post a correction for this tab? Suggest correction