Oops, an error
Loading. Please wait.

Handlebars Tab

version 5
version 5

Intro

Solo

Whole song

9,466 views 96 this week
no commentswrite comment
1 2 3 4 5
excellent!
x 2
add to favorites
launch autoscroll
font size
0
reset
how to read this tab
guitar tuner
Tab Pro tools
  • play this tab
  • loop segment
  • change instrument
  • show fretboard
  • metronome
Autoscroll
slow
fast
+/-
esc
set tempo
stop
Contributor
Difficulty
intermediate
Intro & riff:

E-------------------------------------------------------------------|
B-------------------------------------------------------------------|
G--------14----------------------------------------12------------15-|
D--12-15----15---------14------------12-15-------14--14-----12-15---|
A----------------12-15----15------13----------15----------13--------|
E------------------------------13-----------------------------------|

E-----------------------------------|
B-------15---------13---------------|
G--12-15--15-----14--14-----12-14---|
D--------------15---------14--------|
A--------------------------------12-|
E-----------------------------------|

Chords (power chords):

Dm                          A
I can ride my bike with no handlebars
     F
No handlebars
     C
No handlebars
Bb                          Gm
I can ride my bike with no handlebars
      F
No handlebars
     Em
No handlebars


Dm
Look at me, look at me
A
hands in the air like it's good to be
 F
ALIVE, and I'm a famous rapper
      C
even when the paths're all crookedy
Bb
I can show you how to do-si-do\
Gm
I can show you how to scratch a record
F
I can take apart the remote control
    Em
And I can almost put it back together
Dm
I can tie a knot in a cherry stem
       A
I can tell you about Leif Ericson
   F
I know all the words to "De Colores"
      C
And "I'm Proud to be an American"
Bb
Me and my friend saw a platypus
Gm
Me and my friend made a comic book
      F
And guess how long it took
          Em
I can do anything that I want cuz, look:


Dm                         A
I can keep rhythm with no metronome
    F
No metronome
     C
No metronome

    Bb                          Gm
And I can see your face on the telephone
         F
On the telephone
        Em
On the telephone

Dm
Look at me, look at me
 A
Just called to say that it's good to be
 F
ALIVE, In such a small world
C
All curled up with a book to read
Bb
I can make money open up a thrift store
Gm
I can make a living off a magazine
F
I can design an engine sixty four
Em
Miles to a gallon of gasoline
Dm
I can make new antibiotics
A
I can make computers survive aquatic
    F
conditions, I know how to run a business
    C
And I can make you wanna buy a product
 Bb
Movers shakers and producers
Gm
Me and my friends understand the future
F
I see the strings that control the systems
Em
I can do anything with no assistance
Dm                          A
I can lead a nation with a microphone
        F
With a microphone
        C
With a microphone
Bb                         Gm
I can split the atoms of a molecule
      F
Of a molecule
      Em
Of a molecule


Solo:

(Chords in background: Dm A F C Bb Gm F Em)

e-1--3--0--1--0-------------------------------------------|
B----------------3----------------------------------------|
G-----------------------2--0------------------------------|
D-----------------------------3--2--0---------------------|
A--------------------------------------3------------------|
E---------------------------------------------------------|

e---------------------------------------------------------|
B-1h3-----1h3---------------------------------------------|
G-----2-------2----0--------------------------------------|
D--------------------3------------------------------------|
A---------------------------------------------------------|
E---------------------------------------------------------|

e-----------------1-5--3-1-0------------------------------|
B-------------1-3------------3-1-----3-2-0-1--------------|
G---------0-2--------------------2-3----------------------|
D-0-3-2-3-------------------------------------------------|
A---------------------------------------------------------|
E---------------------------------------------------------|

e---1-1-1-1-1-----1-3-1-0----1-3-1-0----1-3-1-0-----------|
B-------------------------3----------3----------3---------|
G-2-------------------------------------------------------|
D---------------------------------------------------------|
A---------------------------------------------------------|
E---------------------------------------------------------|

e---1-1-1-1-1----1-3-1-0-----1-3-1-0----------------------|
B-------------------------3------------3------------------|
G-2-------------------------------------------------------|
D---------------------------------------------------------|
A---------------------------------------------------------|
E---------------------------------------------------------|

e-1-3-1-0-------------------------------------------------|
B---------2-3---------------------------------------------|
G---------------------------------------------------------|
D---------------------------------------------------------|
A---------------------------------------------------------|
E---------------------------------------------------------|


Dm
Look at me, look at me
 A
Driving and I won't stop
F
And it feels so good to be
 C
Alive and on top
    Bb
My reach is global
    Gm
My tower secure
     F
My cause is noble
    Em
My power is pure
       Dm
I can hand out a million vaccinations
    A
Or let'em all die in exasperation
F
Have'em all healed of their lacerations
 C
Have'em all killed by assassination
Bb
I can make anybody go to prison
 Gm
Just because I don't like'em and
F
I can do anything with no permission
Em
I have it all under my command
Dm                        A
I can guide a missile by satellite
     F
By satellite
     C
By satellite
    Bb                             Gm
and I can hit a target through a telescope
            F
Through a telescope
            Em
Through a telescope
    Dm                           A
and I can end the planet in a holocaust
      F
In a holocaust
      C
In a holocaust
      Bb
In a holocaust
      Gm
In a holocaust
      F           Em
In a holocaust


Just beginning riff:

I can ride my bike with no handlebars
No handle bars
No handlebars

I can ride my bike with no handlebars
No handlebars
No handlebars
comments
We did not receive enough feedback on this tab! Please rate:
print report bad tab
1 2 3 4 5
I want to post or [tab]
guest
You may want to rate the tab now too:
select rating
Please do not post tabs as comments. Select "correction" instead!