Oops, an error
Loading. Please wait.

Handlebars tab

version 7
version 7

Whole song

by Flobots
19 views 1 this week
no commentswrite comment
1 2 3 4 5
3 more votes to show rating
add to favorites
×
Save as Personal and add changes to this tab that will be seen only by you. Learn more ›
×
You can save this tab as Personal to edit and correct it or add notes. All changes will be seen only by you. Learn more »
launch autoscroll
font size
0
reset
how to read this tab
guitar tuner
backing track
0:00
0:00
edit
Autoscroll
slow
fast
+/-
esc
set tempo
stop
About this tab version
This is the version of song with capo which makes it easier to play the intro part. Was this info helpful? Yes No
This is the capo version of the song based off shredster90's tab.
It makes it easier to play the intro part as you don't have to bar the 5th fret all the time.
You can lightly palm mute to get the muted sound in the song.

[Intro]
e|-----------0---------------------------------------------------------------|
B|-------1-------1-----------0-------------------1-------0---3---0-----------|
G|---2-------------------0-------0-----------2-------0-----------------------|
D|-------------------2-------------------3-----------------------------------|
A|-----------------------------------3---------------------------------------|
E|---------------------------------------------------------------------------|

e|---------------1-------1---5---1-------0---3---0-----------0---------------|
B|-----------1-------3---------------1---------------0---3-------------------|
G|-------2-------------------------------------------------------2-----------|
D|---3-----------------------------------------------------------------------|
A|---------------------------------------------------------------------------|
E|---------------------------------------------------------------------------|

[Chorus]
e|---------------------------------------------------------------------------|
B|---------------------------------------------------------------------------|
G|---2-------------------------------5---------------------------------------|
D|---2---------------2---------------5---------------5-----------------------|
A|---0---------------2---------------3---------------5-----------------------|
E|-------------------0-------------------------------3-----------------------|

e|---------------------------------------------------------------------------|
B|---------------------------------------------------------------------------|
G|-------------------7---------------5---------------4-----------------------|
D|---3---------------7---------------5---------------4-----------------------|
A|---3---------------5---------------3---------------2-----------------------|
E|---1-----------------------------------------------------------------------|
Suggest correction
Creating personal tab
Creating personal tab
You can edit any tab online and save it as your Personal.

You can edit, replace or remove any tab part or add personal notes – all changes will be seen only by you.

Personal tabs can be accessed anytime from any device, even offline.
Learn more »
Give kudos to tab author, rate the tab!
1 2 3 4 5
comments
print report bad tab
guest
You may want to rate the tab now too:
select rating
Wanna post a correction for this tab? Suggest correction