Oops, an error
Loading. Please wait.

Occupyearth bass

version 1
version 1

Whole song

by Flobots
343 views 1 this week
1 commentread comment
1 2 3 4 5
3 more votes to show rating
add to favorites
×
Save as Personal and add changes to this tab that will be seen only by you. Learn more ›
×
You can save this tab as Personal to edit and correct it or add notes. All changes will be seen only by you. Learn more »
launch autoscroll
font size
0
reset
guitar tuner
edit
Autoscroll
slow
fast
+/-
esc
set tempo
stop
Author
Difficulty
-------------------------------------------------------------------------------
                             #Occupyearth - Flobots
-------------------------------------------------------------------------------
Tabbed by: Bob R
E-mail: bobljr25@gmail.com

I love Flobots and noticed they don't have many tabs, so I thought I'd contribute. This 
is my first tab and it's solely by ear, so let me know if it's a little off.

Standard Tuning 4 String Bass
EADG

Intro/Verse
G|----------------------------------------------------------------------------|
D|----------------------------------------------------------------------------|
A|--7---------------7--------------7-------------7-------------7--------------|
E|-----8--5-----7-----8--5------7-----8--5----7-----8--5----7-----8--5----7---|

I spaced it out to approximate the pause between notes, but it's up to what sounds best 
to you.


Chorus/Outro
G|----------------------------------------------------------------------------|
D|--2-----0------------------2-----0-----------------2-----0------------------|
A|--------------0-----3------------------0-----3-----------------0-----3------|
E|----------------------------------------------------------------------------|


For the Chorus, you can strum each string several times, but I think it sounds better 
with just a long sustain.

            
            
Suggest correction
Creating personal tab
Creating personal tab
You can edit any tab online and save it as your Personal.

You can edit, replace or remove any tab part or add personal notes – all changes will be seen only by you.

Personal tabs can be accessed anytime from any device, even offline.
Learn more »
Give kudos to tab author, rate the tab!
1 2 3 4 5
comments
print report bad tab
1 comment total.
0 reply
winterfitz36 116 Feb 29, 2016 12:04 PM

For the verse, I think it's actually:
G|-------------------------------------------------------------------------------|
D|-------------------------------------------------------------------------------|
A|--7--------------5/7------------5/7-------------5/7----------5/7---------------|
E|-----10--5-----------10--5----------10--5----------10--5---------10--5----7----|

Though, I will admit that I tabbed that on my guitar

guest
You may want to rate the tab now too:
select rating
Wanna post a correction for this tab? Suggest correction