Oops, an error
Loading. Please wait.

Occupyearth bass

version 2
version 2

Whole song

by Flobots
52 views 1 this week
no commentswrite comment
1 2 3 4 5
3 more votes to show rating
add to favorites
×
Save as Personal and add changes to this tab that will be seen only by you. Learn more ›
×
You can save this tab as Personal to edit and correct it or add notes. All changes will be seen only by you. Learn more »
launch autoscroll
font size
0
reset
guitar tuner
edit
Autoscroll
slow
fast
+/-
esc
set tempo
stop
Author
-------------------------------------------------------------------------------
                             Occupyearth - Flobots
-------------------------------------------------------------------------------
Email: winterfitz36@gmail.com

Tuning: EADG

Intro/Verse 
G|------12--14--12----------------------------------------------------------------|
D|--14--14--14--14-----Continue until Chorus--------------------------------------|
A|--x-----------------------------------------------------------------------------|
E|--12----------------------------------------------------------------------------|

Pre-Chorus
G|--------------------------------------------------------------------------------|
D|--14---12---7---10--------------------------------------------------------------|
A|--0----0----0---0---------------------------------------------------------------|
E|--------------------------------------------------------------------------------|

Chorus
G|--------------------------------------------------------------------------------|
D|---14--12--7--10----------------------------------------------------------------|
A|---x----x--x--x-----------------------------------------------------------------|
E|---12--10--5--8-----------------------------------------------------------------|

Violin Solo: (part 1) Play Chorus riff ^

(part 2) Played when Kenny O is hitting the cymbals three times!
G|--------------------------------------------------------------------------------|
D|---14-14-14---12-12-12--7-7-7---10-10-10----------------------------------------|
A|---x--x--x----x--x--x---x-x-x---x--x--x-----------------------------------------|
E|---12-12-12---10-10-10--5-5-5---8--8--8-----------------------------------------|

Play each octave in time to Kenny O's cymbal crashes!

Outro (not 100% sure)
G|--------------------------------------------------------------------------------|
D|--14---12---7---10--------------------------------------------------------------|
A|--0----0----0---0---------------------------------------------------------------|
E|--------------------------------------------------------------------------------|

Played with a bunch of delay

Tabbed from: https://www.youtube.com/watch?v=CCJppOAVNvk (their performance from the Second Story Garage)

Feel free to send me any corrections!

            
            
Suggest correction
Creating personal tab
Creating personal tab
You can edit any tab online and save it as your Personal.

You can edit, replace or remove any tab part or add personal notes – all changes will be seen only by you.

Personal tabs can be accessed anytime from any device, even offline.
Learn more »
Give kudos to tab author, rate the tab!
1 2 3 4 5
comments
print report bad tab
guest
You may want to rate the tab now too:
select rating
Wanna post a correction for this tab? Suggest correction