Oops, an error
Loading. Please wait.

Black Friday Rule Bass Tab

version 1
version 1

Whole song

Interactive

3,509 views 3 this week
2 commentsread comments
1 2 3 4 5
please rate
add to favorites
launch autoscroll
font size
0
reset
guitar tuner
Autoscroll
slow
fast
+/-
esc
set tempo
stop
Help us to improve Ultimate-Guitar.com Take our survey!
×
Author
Band:  Flogging Molly
Song:  Black Friday Rule
Album: Swagger

Play with cd to get timing, And amount of times each part is played

Intro
|----------------------------------------------------------------|
|----------------------------------------------------------------|
|-2---5---0---2---2---5---0---2---2---0---5---2---2---5---0---2--|
|--2---5---0---2---2---5---0---2---2---0---5---2---2---5---0---2-|

|---------------|
|---------------|
|-2---2---2---2-|
|--2---2---2----|



Bass takes a Break

Interlude/pre verse2
|------------------------------------------------|
|------------------------------------------------|
|-2---5---0---2---2---5---0---2---2---2---2---2--|
|--2---5---0---2---2---5---0---2---2---2---2---2-|

Verse2
|--------------------------------|
|--------------------------------|
|-2---5---0---2---2---5---0---2--|
|--2---5---0---2---2---5---0---2-|

Pre Chorus
|-----------------------------------------------------------------|
|-----------------------------------------------------------------|
|-5-5-5-5-5-5-5-5-5-5-5-5---------------------------------2-2-2-2-|
|-------------------------5-5-5-5-5-5-5-5-2-2-2-2-2-2-2-2---------|

|-----------------------------------------------------------------|
|-----------------------------------------------------------------|
|-5-5-5-5-5-5-5-5-5-5-5-5-----------------------------------------|
|-------------------------5-5-5-5-2-2-2-2-2-2-2-2-2-2-2-2-2-2-2-2-|


Chorus
|--------------------------------------------------------|
|--------------------------------------------------------|
|-2---5---0---2---2---5---0---2---2---5---0---2---5---5--|
|--2---5---0---2---2---5---0---2---2---5---0---2---5---5-|

|-------------------|
|-------------------|
|-5---2---5---5---5-|
|--5---2---5---5----|


Pre Guitar solo
|-----------------------------------------------------------------|
|---------------------------------2---2---2--------2---2---2------|
|-2---5---0---2---2---5---0---2----------------2---------------2--|
|--2---5---0---2---2---5---0---2----3---3---3---2----3---3---3--2-|

|-----------------------------------------------------------------|
|---------------------------------2---2---2--------2---2---2------|
|-5---5---5---2---5---5---5---2----------------2---------------2--|
|--5---5---5---2---5---5---5---2----3---3---3---2----3---3---3--2-|


Guitar solo
|---------------------------------0--0--0--0--0--0--------|
|----------------------------------------------------4--4-|
|-2---5---0---2---2---5---0---2---------------------------|
|--2---5---0---2---2---5---0---2--------------------------|

|-0--0--0--0--0--0------------------------------------|
|-------------------4--4------------------------------|
|--------------------------0---0---2---5---0---0---0~-|
|---------------------------0---0---2---5---0---0-----|

Near the end of verse3
|-------|
|-------|
|-2-x24-|
|-------|

Pre 3rd chorus-Listen for it
|----------------------------------------------------------------|
|----------------------------------------------------------------|
|-5-5-5-5-5-5-5-5-5-5-5-5--------------------------------2-2-2-2-|
|-------------------------5-5-5-5-5-5-5-5-2-2-2-2-2-2-2-2--------|

|-------------------------------------------|
|-------------------------------------------|
|-5-5-5-5-5-5-5-5-5-5-5-5-------------------|
|-------------------------5---5---5---5---5-|


|-------|
|-------|
|-------|
|-5-x17-|


Last Chorus
|------------------------------------------------------------|
|------------------------------------------------------------|
|-2---5---0---2---2---5---0---2---5---5---5---2---5---0---2--|
|--2---5---0---2---2---5---0---2---5---5-------2---5---0---2-|

Outro
|----------------------------------------------------------|
|----------------------------------------------------------|
|-2---------2---2---2---2---2---2---0---2---7---7---7---5--|
|------------2---2---2---2---2---2---0---2---7---7---7---5-|

|-------------------------------------------------------------|
|-------------------------------------------------------------|
|-5---2---2---2---2---2---2--2---2---2---0---2------0-----2---|
|--5---2---2---2---2---2---2--2---2---2---0---2--------0----2-|


|--------------------------------------------------------|
|--------------------------------------------------------|
|-7---7---7---5---5-----2---2--2---2---2---2---2---2---2-|
|--7---7---7---5----5--2---2----2---2---2---2---2---2---2|

|-------------------------------------------|
|-------------------------------------------|
|-0---2---2---2---2---2---2---2---0-------2-|
|--0---2---2---2---2---2---2---2---0---2----|
Suggest correction
Give kudos to tab author, rate the tab!
1 2 3 4 5
comments
print report bad tab
2 comments total.
0 reply
thunderhawk 535 wrote on December 6 2008, 09:49 pm

no.. i dont think thats rightr at all. i followed it with the live version of the song and the intro does not eve seem to be there.

0 reply
greenday2003 837 wrote on December 7 2008, 03:20 pm

No probs, any chance of a correction?? Thanks

guest
You may want to rate the tab now too:
select rating
Wanna post a correction for this tab? Suggest correction