Oops, an error
Loading. Please wait.

Death Valley Queen bass

version 1
version 1

Whole song

Interactive

754 views 1 this week
no commentswrite comment
1 2 3 4 5
3 more votes to show rating
add to favorites
×
Save as Personal and add changes to this tab that will be seen only by you. Learn more ›
×
You can save this tab as Personal to edit and correct it or add notes. All changes will be seen only by you. Learn more »
launch autoscroll
font size
0
reset
guitar tuner
edit
Autoscroll
slow
fast
+/-
esc
set tempo
stop
Song:   Death Valley Queen
Album:  Drunken Lullabie
Band:   Flogging Molly
Bassist:Nathen Maxwell
Tabber: as.i.lay.dying@gmx.net

ok, i hope that this time, it will be alright

Ok, this is quite the tab from Pfiestdog007@yahoo.com but I think he overlooked some variations.
I dont think its 100% but it sounds good


Intro & Verse, play 3 times
G ------------------------------------------|
D ------------------------------------------|
A-----5---3---5--0---5---3--5---------------|
E---3---3---3--3---3---3--3---3-------x3----|
about these i'm not sure, but it sounds good. try out

Pre-Chorus
G ---------------------------------------------|
D ---------------------------------------------|
A---0--0-2-3-2-3-0--0-0-0-2-3-2-3-2-3-5--------|
E----------------------------------------------|

chorus and fiddle-part
G -------------------------------------------------|
D -------------------------------------------------|
A-----5---3---5--0---5---3--5----------------------|
E---3---3---3--3---3---3--3---3-------x3-----------|

Intro& Verse
G ----------------------------------------------|
D ----------------------------------------------|
A-----5---3---5--0---5---23---5-----------------|
E---3---3---3--3---3---35----3---3----x3--------|

Pre-Chorus
G ---------------------------------------------|
D ---------------------------------------------|
A---0--0-2-3-2-3-0--0-0-0-2-3-2-3-5------------|
E----------------------------------------------|

chorus
G -----------------------------------|
D -----------------------------------|
A-----5---3---5--0-------------------|
E---3---3---3--3---------------------|


Bridge
G ------------------------------|
D ----------0--0--0--0----------|
A----2--3---------------3-2-----|
E--3--------------------------3-|

Fiddle-solo
G ----------------------------------------------------|
D ----------------------------------------------------|
A-----5---3---5--0---5---3--5-------------------------|
E---3---3---3--3---3---3--3---3-----------------------|

G -----------------------------------------------------------------11-12-|
D ----------------------------------------------------------10-12--------|
A---2-3-5--5-5-5-3203025---5--5--5-5-5-3203025-----5/12------------------|
E------------------------------------------------------------------------|

wait... ("I have always loved you")

Verse
G ---------------------------------------------|
D ---------------------------------------------|
A ---5---3---5---3---5---0---5---23---5--------|
E -3---3---3---3---3---3---3---35---3---3--x3--|

Pre-Chorus
G ------------------------------------|
D ------------------------------------|
A---0--0-2-3-2-3-0--0-0-0-2-3-2-3-5---|
E-------------------------------------|

Double-chorus
G ------------------------------------------|
D ------------------------------------------|
A-----5---3---5--0---5---3------------------|
E---3---3---3--3---3---3--------------------|

outro
G -------------------------|
D -------------------------|
A-----5---3---5-3----------|
E---3---3---3-----5-3~-----|


/ slide
x deadnote
~ let ring
Suggest correction
Creating personal tab
Creating personal tab
You can edit any tab online and save it as your Personal.

You can edit, replace or remove any tab part or add personal notes – all changes will be seen only by you.

Personal tabs can be accessed anytime from any device, even offline.
Learn more »
Give kudos to tab author, rate the tab!
1 2 3 4 5
comments
print report bad tab
guest
You may want to rate the tab now too:
select rating
Wanna post a correction for this tab? Suggest correction