Oops, an error
Loading. Please wait.

Devils Dance Floor bass

version 1
version 1

Whole song

Interactive

4,631 views 6 this week
1 commentread comment
1 2 3 4 5
1 last vote to show rating
add to favorites
×
Save as Personal and add changes to this tab that will be seen only by you. Learn more ›
×
You can save this tab as Personal to edit and correct it or add notes. All changes will be seen only by you. Learn more »
launch autoscroll
font size
0
reset
guitar tuner
edit
Autoscroll
slow
fast
+/-
esc
set tempo
stop
#----------------------------------PLEASE NOTE---------------------------------#
#This file is the author's own work and represents their interpretation of the #
#song. You may only use this file for private study, scholarship, or research. #
#------------------------------------------------------------------------------#

DEVILS DANCE FLOOR (Bassline)
As recorded by Flogging Molly


	



Gtr I (E A D G B E) - 'High Notes'
Gtr II (E A D G B E) - 'Percussion'
Gtr III (E A D G) - 'Picked Bass'

  Q=146
 4/4
  Gtr II
  Q  Q  Q  Q    Q  Q  E S S E S S   Q  Q  Q  Q    Q  Q  E S S E S S
|-------------|-------------------|-------------|--------------------|
|-------------|-------------------|-------------|--------------------|
|-------------|-------------------|-------------|--------------------|
|-------------|-------------------|-------------|--------------------|
|-------------|-------------------|-------------|--------------------|
|-3--3--3--3--|-3--3--3-3-3-3-3-3-|-3--3--3--3--|-3--3--3-3-3-3-3-3--|


  Gtr I
      |--3--|                            |-3-|
   E  S  S  S  E  E  Q   E  E    E E E E S S S E   Q
|-12-19-17-19-17-14-15--12-14-|-12-5-5-7-5-7-5-3---0-----|
|-----------------------------|--------------------------|
|-----------------------------|--------------------------|
|-----------------------------|--------------------------|
|-----------------------------|--------------------------|
|-----------------------------|--------------------------|
|
| Gtr II
|  Q           Q     Q   Q       Q   Q   E     S S E S S
|-----------------------------|--------------------------|
|-----------------------------|--------------------------|
|-----------------------------|--------------------------|
|-----------------------------|--------------------------|
|-----------------------------|--------------------------|
|--3-----------3-----3---3----|--3---3---3-----3-3-3-3-3-|


      |--3--|                            |-3-|
   E  S  S  S  E  E  Q   E  E    E E E E S S S E   Q
|-12-19-17-19-17-14-15--12-14-|-12-5-5-7-5-7-5-3---3-----|
|-----------------------------|--------------------------|
|-----------------------------|--------------------------|
|-----------------------------|--------------------------|
|-----------------------------|--------------------------|
|-----------------------------|--------------------------|
|
|  Q           Q     Q   Q       Q   Q   E     S S E S S
|-----------------------------|--------------------------|
|-----------------------------|--------------------------|
|-----------------------------|--------------------------|
|-----------------------------|--------------------------|
|-----------------------------|--------------------------|
|--3-----------3-----3---3----|--3---3---3-----3-3-3-3-3-|


      |--3--|                            |-3-|
   E  S  S  S  E  E  Q   E  E    E E E E S S S E   Q
|-12-19-17-19-17-14-15--12-14-|-12-5-5-7-5-7-5-3---0-----|
|-----------------------------|--------------------------|
|-----------------------------|--------------------------|
|-----------------------------|--------------------------|
|-----------------------------|--------------------------|
|-----------------------------|--------------------------|
|
|  Q           Q     Q   Q       Q   Q   E     S S E S S
|-----------------------------|--------------------------|
|-----------------------------|--------------------------|
|-----------------------------|--------------------------|
|-----------------------------|--------------------------|
|-----------------------------|--------------------------|
|--3-----------3-----3---3----|--3---3---3-----3-3-3-3-3-|


      |--3--|
   E  S  S  S  E  E  Q   E   E
|-12-19-17-19-17-14-15--12--14---|
|--------------------------------|
|--------------------------------|
|--------------------------------|
|--------------------------------|
|--------------------------------|
|
|  Q           Q     Q   E.    S
|--------------------------------|
|--------------------------------|
|--------------------------------|
|------------------------------2-|
|--3-----------3-----3---3-------|
|--------------------------------|


           |--3--|
   E E E E S S   S E   Q          E S S E E Q   S S E
|-12-5-5-7-5-7---5-3---0-------|-12-5-5-5-7-5---5-5-7-|
|------------------------------|----------------------|
|------------------------------|----------------------|
|------------------------------|----------------------|
|------------------------------|----------------------|
|------------------------------|----------------------|
|
|  E E E E S   S   S S S S S S    E E   E E E E E   E
|------------------------------|----------------------|
|------------------------------|----------------------|
|------------------------------|----------------------|
|--2-----2-2---2---2-2-2-2-2-2-|----2-----2---2-----2-|
|----3-3-----------------------|--3-----3---3---3-----|
|------------------------------|----------------------|
|
| Gtr III
|  W                              Q     Q   Q   Q
|------------------------------|----------------------|
|------------------------------|----------------------|
|------------------------------|--0---------0---------|
|------------------------------|--------0-------0-----|


  Q    E E E E Q      E S S E E Q   S S E
|-8---10-8-7-5-3---|-12-5-5-5-7-5---5-5-7---|
|------------------|------------------------|
|------------------|------------------------|
|------------------|------------------------|
|------------------|------------------------|
|------------------|------------------------|
|
| E E  E E E E E E    E E   E E E E E   E
|------------------|------------------------|
|------------------|------------------------|
|------------------|------------------------|
|---2----2---2---2-|----2-----2---2-----2---|
|-3----3---3---3---|--3-----3---3---3-------|
|------------------|------------------------|
|
| Q    Q   Q   Q      Q     Q   Q   Q
|------------------|------------------------|
|------------------|------------------------|
|-3----0---2-------|--0---------0-----------|
|--------------3---|--------0-------0-------|


  Q    E E H                  E S S E E Q   S S E
|-8---10-8-7---------------|-12-5-5-5-7-5---5-5-7-|
|--------------------------|----------------------|
|--------------------------|----------------------|
|--------------------------|----------------------|
|--------------------------|----------------------|
|--------------------------|----------------------|
|
| E E  E E S S S S S S S S    E E   E E E E E   E
|--------------------------|----------------------|
|--------------------------|----------------------|
|--------------------------|----------------------|
|---2----2-2-2-2-2-2-2-2-2-|----2-----2---2-----2-|
|-3----3-------------------|--3-----3---3---3-----|
|--------------------------|----------------------|
|
| Q    Q   H                  Q     Q   Q   Q
|--------------------------|----------------------|
|--------------------------|----------------------|
|-3----0---2---------------|--0---------0---------|
|--------------------------|--------0-------0-----|


  Q    E E E E Q      E S S E E Q   S S E
|-8---10-8-7-5-3---|-12-5-5-5-7-5---5-5-7--|
|------------------|-----------------------|
|------------------|-----------------------|
|------------------|-----------------------|
|------------------|-----------------------|
|------------------|-----------------------|
|
| E E  E E E E E E    E E   E E E E E   E
|------------------|-----------------------|
|------------------|-----------------------|
|------------------|-----------------------|
|---2----2---2---2-|----2-----2---2-----2--|
|-3----3---3---3---|--3-----3---3---3------|
|------------------|-----------------------|
|
| Q    Q   Q   Q      Q     Q   Q   Q
|------------------|-----------------------|
|------------------|-----------------------|
|-3----0---2-------|--0---------0----------|
|--------------3---|--------0-------0------|


                                |---3---|
  E E E E H                  E  S  S    S  E  E    Q      E  E
|-8-5-7-3-5---------------|-12-19-17---19-17-14---15-----12-14---|
|-------------------------|--------------------------------------|
|-------------------------|--------------------------------------|
|-------------------------|--------------------------------------|
|-------------------------|--------------------------------------|
|-------------------------|--------------------------------------|
|
| E E E E S S S S S S S S    E  S    S     E  S S  E S S  E  S S
|-------------------------|--------------------------------------|
|-------------------------|--------------------------------------|
|-------------------------|--------------------------------------|
|---2---2-2-2-2-2-2-2-2-2-|--2-----------------------------------|
|-3---3-------------------|--------------------------------------|
|-------------------------|--3--3----3-----3--3-3--3-3-3--3--3-3-|
|
| Q   Q   H                  W
|-------------------------|--------------------------------------|
|-------------------------|--------------------------------------|
|-3---2---0---------------|--------------------------------------|
|-------------------------|--------------------------------------|


               |--3--|
   E E   E E   S S   S E   Q
|-12-5---5-7---5-7---5-3---0------|
|---------------------------------|
|---------------------------------|
|---------------------------------|
|---------------------------------|
|---------------------------------|
|
|  E S S E S S S   S   S S S S E
|---------------------------------|
|---------------------------------|
|---------------------------------|
|---------------------------------|
|---------------------------------|
|--3-3-3-3-3-3-3---3---3-3-3-3-3--|
|
|  W
|---------------------------------|
|---------------------------------|
|---------------------------------|
|---------------------------------|


      |---3---|                                       |--3--|
   E  S  S    S  E  E    Q      E  E      E E   E E   S S   S E   Q
|-12-19-17---19-17-14---15-----12-14---|-12-5---5-7---5-7---5-3---3-----|
|--------------------------------------|--------------------------------|
|--------------------------------------|--------------------------------|
|--------------------------------------|--------------------------------|
|--------------------------------------|--------------------------------|
|--------------------------------------|--------------------------------|
|
|  E  S    S     E  S S  E S S  E  S S    E S S E S S S   S   S S S S E
|--------------------------------------|--------------------------------|
|--------------------------------------|--------------------------------|
|--------------------------------------|--------------------------------|
|--------------------------------------|--------------------------------|
|--------------------------------------|--------------------------------|
|--3--3----3-----3--3-3--3-3-3--3--3-3-|--3-3-3-3-3-3-3---3---3-3-3-3-3-|


      |---3---|
   E  S  S    S  E  E    Q      E  E
|-12-19-17---19-17-14---15-----12-14-----|
|----------------------------------------|
|----------------------------------------|
|----------------------------------------|
|----------------------------------------|
|----------------------------------------|
|
|  E  S    S     E  S S  E S S  E  S S
|----------------------------------------|
|----------------------------------------|
|----------------------------------------|
|----------------------------------------|
|----------------------------------------|
|--3--3----3-----3--3-3--3-3-3--3--3-3---|


               |--3--|
   E E   E E   S S   S E   Q
|-12-5---5-7---5-7---5-3---0-----|
|--------------------------------|
|--------------------------------|
|--------------------------------|
|--------------------------------|
|--------------------------------|
|
|  E S S E S S S   S   S S S S E
|--------------------------------|
|--------------------------------|
|--------------------------------|
|--------------------------------|
|--------------------------------|
|--3-3-3-3-3-3-3---3---3-3-3-3-3-|


      |--3--|                               |--3--|
   E  S  S  S  E  E  Q   E   E      E E E E S S   S E   Q
|-12-19-17-19-17-14-15--12--14---|-12-5-5-7-5-7---5-3---3---------|
|--------------------------------|--------------------------------|
|--------------------------------|--------------------------------|
|--------------------------------|--------------------------------|
|--------------------------------|--------------------------------|
|--------------------------------|--------------------------------|
|
|  Q           Q     Q   E.    S    E E E E S   S   S S S S S S
|--------------------------------|--------------------------------|
|--------------------------------|--------------------------------|
|--------------------------------|--------------------------------|
|------------------------------2-|--2-----2-2---2---2-2-2-2-2-2---|
|--3-----------3-----3---3-------|----3-3-------------------------|
|--------------------------------|--------------------------------|


           |-3-|
   E E E E S S S E Q     Q    E E E E Q
|-12-5-5-7-5-7-5-3-7---|-8---10-8-7-5-3---|
|----------------------|------------------|
|----------------------|------------------|
|----------------------|------------------|
|----------------------|------------------|
|----------------------|------------------|
|
|  E E E E E     E E E   E E  E E E E E E
|----------------------|------------------|
|----------------------|------------------|
|----------------------|------------------|
|----2---2-------2---2-|---2----2---2---2-|
|--3---3---3-------3---|-3----3---3---3---|
|----------------------|------------------|
|
| Gtr III
|  Q   Q   Q       Q     Q    Q   Q   Q
|----------------------|------------------|
|----------------------|------------------|
|--0-------0-----------|-3----0---2-------|
|------0-----------0---|--------------3---|


           |-3-|
   E E E E S S S E Q     Q    E E H
|-12-5-5-7-5-7-5-3-7---|-8---10-8-7----------------|
|----------------------|---------------------------|
|----------------------|---------------------------|
|----------------------|---------------------------|
|----------------------|---------------------------|
|----------------------|---------------------------|
|
|  E E E E E     E E E   E E  E E S S S S S S S S
|----------------------|---------------------------|
|----------------------|---------------------------|
|----------------------|---------------------------|
|----2---2-------2---2-|---2----2-2-2-2-2-2-2-2-2--|
|--3---3---3-------3---|-3----3--------------------|
|----------------------|---------------------------|
|
|  Q   Q   Q       Q     Q    Q   H
|----------------------|---------------------------|
|----------------------|---------------------------|
|--0-------0-----------|-3----0---2----------------|
|------0-----------0---|---------------------------|


   E S S E E Q   S S E   Q    E E E E Q
|-12-5-5-5-7-5---5-5-7-|-8---10-8-7-5-3---|
|----------------------|------------------|
|----------------------|------------------|
|----------------------|------------------|
|----------------------|------------------|
|----------------------|------------------|
|
|  E E   E E E E E   E   E E  E E E E E E
|----------------------|------------------|
|----------------------|------------------|
|----------------------|------------------|
|----2-----2---2-----2-|---2----2---2---2-|
|--3-----3---3---3-----|-3----3---3---3---|
|----------------------|------------------|
|
|  Q     Q   Q   Q       Q    Q   Q   Q
|----------------------|------------------|
|----------------------|------------------|
|--0---------0---------|-3----0---2-------|
|--------0-------0-----|--------------3---|


   E S S E E Q   S S E   E E E E H
|-12-5-5-5-7-5---5-5-7-|-8-5-7-3-5----------------|
|----------------------|--------------------------|
|----------------------|--------------------------|
|----------------------|--------------------------|
|----------------------|--------------------------|
|----------------------|--------------------------|
|
|  E E   E E E E E   E   E E E E S S S S S S S S
|----------------------|--------------------------|
|----------------------|--------------------------|
|----------------------|--------------------------|
|----2-----2---2-----2-|---2---2-2-2-2-2-2-2-2-2--|
|--3-----3---3---3-----|-3---3--------------------|
|----------------------|--------------------------|
|
|  Q     Q   Q   Q       Q   Q   H
|----------------------|--------------------------|
|----------------------|--------------------------|
|--0---------0---------|-3---2---0----------------|
|--------0-------0-----|--------------------------|


      |---3---|                                       |--3--|
   E  S  S    S  E  E    Q      E  E      E E   E E   S S   S E   Q
|-12-19-17---19-17-14---15-----12-14---|-12-5---5-7---5-7---5-3---0-----|
|--------------------------------------|--------------------------------|
|--------------------------------------|--------------------------------|
|--------------------------------------|--------------------------------|
|--------------------------------------|--------------------------------|
|--------------------------------------|--------------------------------|
|
|  E  S    S     E  S S  E S S  E  S S    E S S E S S S   S   S S S S E
|--------------------------------------|--------------------------------|
|--------------------------------------|--------------------------------|
|--------------------------------------|--------------------------------|
|--2-----------------------------------|--------------------------------|
|--------------------------------------|--------------------------------|
|--3--3----3-----3--3-3--3-3-3--3--3-3-|--3-3-3-3-3-3-3---3---3-3-3-3-3-|


      |---3---|
   E  S  S    S  E  E    Q      E  E
|-12-19-17---19-17-14---15-----12-14-----|
|----------------------------------------|
|----------------------------------------|
|----------------------------------------|
|----------------------------------------|
|----------------------------------------|
|
|  E  S    S     E  S S  E S S  E  S S
|----------------------------------------|
|----------------------------------------|
|----------------------------------------|
|----------------------------------------|
|----------------------------------------|
|--3--3----3-----3--3-3--3-3-3--3--3-3---|


               |--3--|                 |---3---|
   E E   E E   S S   S E   Q        E  S  S    S  E  E    Q      E  E
|-12-5---5-7---5-7---5-3---3-----|-12-19-17---19-17-14---15-----12-14---|
|--------------------------------|--------------------------------------|
|--------------------------------|--------------------------------------|
|--------------------------------|--------------------------------------|
|--------------------------------|--------------------------------------|
|--------------------------------|--------------------------------------|
|
|  E S S E S S S   S   S S S S E    E  S    S     E  S S  E S S  E  S S
|--------------------------------|--------------------------------------|
|--------------------------------|--------------------------------------|
|--------------------------------|--------------------------------------|
|--------------------------------|--------------------------------------|
|--------------------------------|--------------------------------------|
|--3-3-3-3-3-3-3---3---3-3-3-3-3-|--3--3----3-----3--3-3--3-3-3--3--3-3-|


               |--3--|
   E E   E E   S S   S E   Q
|-12-5---5-7---5-7---5-3---0-----|
|--------------------------------|
|--------------------------------|
|--------------------------------|
|--------------------------------|
|--------------------------------|
|
|  E S S E S S S   S   S S S S E
|--------------------------------|
|--------------------------------|
|--------------------------------|
|--------------------------------|
|--------------------------------|
|--3-3-3-3-3-3-3---3---3-3-3-3-3-|


      |--3--|                               |--3--|
   E  S  S  S  E  E  Q   E   E      E E E E S S   S E   Q
|-12-19-17-19-17-14-15--12--14---|-12-5-5-7-5-7---5-3---3---------|
|--------------------------------|--------------------------------|
|--------------------------------|--------------------------------|
|--------------------------------|--------------------------------|
|--------------------------------|--------------------------------|
|--------------------------------|--------------------------------|
|
|  Q           Q     Q   E.    S    E E E E S   S   S S S S S S
|--------------------------------|--------------------------------|
|--------------------------------|--------------------------------|
|--------------------------------|--------------------------------|
|------------------------------2-|--2-----2-2---2---2-2-2-2-2-2---|
|--3-----------3-----3---3-------|----3-3-------------------------|
|--------------------------------|--------------------------------|


      |---3---|                                       |--3--|
   E  S  S    S  E  E    Q      E  E      E E   E E   S S   S E   Q
|-12-19-17---19-17-14---15-----12-14---|-12-5---5-7---5-7---5-3---0-----|
|--------------------------------------|--------------------------------|
|--------------------------------------|--------------------------------|
|--------------------------------------|--------------------------------|
|--------------------------------------|--------------------------------|
|--------------------------------------|--------------------------------|
|
|  E  S    S     E  S S  E S S  E  S S    E S S E S S S   S   S S S S E
|--------------------------------------|--------------------------------|
|--------------------------------------|--------------------------------|
|--------------------------------------|--------------------------------|
|--2-----------------------------------|--------------------------------|
|----------------3-------3------3------|--3-----3-----3-----------3-----|
|--3--3----3-----3--3-3--3-3-3--3--3-3-|--3-3-3-3-3-3-3---3---3-3-3-3-3-|


      |---3---|
   E  S  S    S  E  E    Q      E  E
|-12-19-17---19-17-14---15-----12-14-----|
|----------------------------------------|
|----------------------------------------|
|----------------------------------------|
|----------------------------------------|
|----------------------------------------|
|
|  E  S    S     E  S S  E S S  E  S S
|----------------------------------------|
|----------------------------------------|
|----------------------------------------|
|----------------------------------------|
|--3-------------3-------3------3--------|
|--3--3----3-----3--3-3--3-3-3--3--3-3---|


               |--3--|                 |---3---|
   E E   E E   S S   S E   Q        E  S  S    S  E  E    Q      E  E
|-12-5---5-7---5-7---5-3---3-----|-12-19-17---19-17-14---15-----12-14---|
|--------------------------------|--------------------------------------|
|--------------------------------|--------------------------------------|
|--------------------------------|--------------------------------------|
|--------------------------------|--------------------------------------|
|--------------------------------|--------------------------------------|
|
|  E S S E S S S   S   S S S S E    E  S    S     E  S S  E S S  E  S S
|--------------------------------|--------------------------------------|
|--------------------------------|--------------------------------------|
|--------------------------------|--------------------------------------|
|--------------------------------|--------------------------------------|
|--3-----3-----3-----------3-----|--3-------------3-------3------3------|
|--3-3-3-3-3-3-3---3---3-3-3-3-3-|--3--3----3-----3--3-3--3-3-3--3--3-3-|


               |--3--|
   E E   E E   S S   S E   Q
|-12-5---5-7---5-7---5-3---0-----|
|--------------------------------|
|--------------------------------|
|--------------------------------|
|--------------------------------|
|--------------------------------|
|
|  E S S E S S S   S   S S S S E
|--------------------------------|
|--------------------------------|
|--------------------------------|
|--------------------------------|
|--3-----3-----3-----------3-----|
|--3-3-3-3-3-3-3---3---3-3-3-3-3-|


      |--3--|                               |--3--|
   E  S  S  S  E  E  Q   E   E      E E E E S S   S E   Q
|-12-19-17-19-17-14-15--12--14---|-12-5-5-7-5-7---5-3---3---------|
|--------------------------------|--------------------------------|
|--------------------------------|--------------------------------|
|--------------------------------|--------------------------------|
|--------------------------------|--------------------------------|
|--------------------------------|--------------------------------|
|
|  Q           Q     Q   E.    S    E E E E S   S   S S S S S S
|--------------------------------|--------------------------------|
|--------------------------------|--------------------------------|
|--------------------------------|--------------------------------|
|------------------------------2-|--2-----2-2---2---2-2-2-2-2-2---|
|--3-----------3-----3---3-------|----3-3-------------------------|
|--------------------------------|--------------------------------|


   E S S E E Q   S S E   Q    E E E E Q
|-12-5-5-5-7-5---5-5-7-|-8---10-8-7-5-3---|
|----------------------|------------------|
|----------------------|------------------|
|----------------------|------------------|
|----------------------|------------------|
|----------------------|------------------|
|
|  E E   E E E E E   E   E E  E E E E E E
|----------------------|------------------|
|----------------------|------------------|
|----------------------|------------------|
|----2-----2---2-----2-|---2----2---2---2-|
|--3-----3---3---3-----|-3----3---3---3---|
|----------------------|------------------|
|
| Gtr III
|  Q     Q   Q   Q       Q    Q   Q   Q
|----------------------|------------------|
|----------------------|------------------|
|--0---------0---------|-3----0---2-------|
|--------0-------0-----|--------------3---|


   E S S E E Q   S S E   Q    E E H
|-12-5-5-5-7-5---5-5-7-|-8---10-8-7----------------|
|----------------------|---------------------------|
|----------------------|---------------------------|
|----------------------|---------------------------|
|----------------------|---------------------------|
|----------------------|---------------------------|
|
|  E E   E E E E E   E   E E  E E S S S S S S S S
|----------------------|---------------------------|
|----------------------|---------------------------|
|----------------------|---------------------------|
|----2-----2---2-----2-|---2----2-2-2-2-2-2-2-2-2--|
|--3-----3---3---3-----|-3----3--------------------|
|----------------------|---------------------------|
|
|  Q     Q   Q   Q       Q    Q   H
|----------------------|---------------------------|
|----------------------|---------------------------|
|--0---------0---------|-3----0---2----------------|
|--------0-------0-----|---------------------------|


   E S S E E Q   S S E   Q    E E E E Q
|-12-5-5-5-7-5---5-5-7-|-8---10-8-7-5-3---|
|----------------------|------------------|
|----------------------|------------------|
|----------------------|------------------|
|----------------------|------------------|
|----------------------|------------------|
|
|  E E   E E E E E   E   E E  E E E E E E
|----------------------|------------------|
|----------------------|------------------|
|----------------------|------------------|
|----2-----2---2-----2-|---2----2---2---2-|
|--3-----3---3---3-----|-3----3---3---3---|
|----------------------|------------------|
|
|  Q     Q   Q   Q       Q    Q   Q   Q
|----------------------|------------------|
|----------------------|------------------|
|--0---------0---------|-3----0---2-------|
|--------0-------0-----|--------------3---|


   E S S E E Q   S S E   E E E E H
|-12-5-5-5-7-5---5-5-7-|-8-5-7-3-5-------|
|----------------------|-----------------|
|----------------------|-----------------|
|----------------------|-----------------|
|----------------------|-----------------|
|----------------------|-----------------|
|
|  E E   E E E E E   E   E E E E E E E E
|----------------------|-----------------|
|----------------------|-----------------|
|----------------------|-----------------|
|----2-----2---2-----2-|---2---2---2---2-|
|--3-----3---3---3-----|-3---3---3---3---|
|----------------------|-----------------|
|
|  Q     Q   Q   Q       Q   Q   H
|----------------------|-----------------|
|----------------------|-----------------|
|--0---------0---------|-3---2---0-------|
|--------0-------0-----|-----------------|


   E S S E E Q   S S E   E E E E H
|-12-5-5-5-7-5---5-5-7-|-8-5-7-3-5---------------|
|----------------------|-------------------------|
|----------------------|-------------------------|
|----------------------|-------------------------|
|----------------------|-------------------------|
|----------------------|-------------------------|
|
|  E E   E E E E E   E   E E E E S S S S S S S S
|----------------------|-------------------------|
|----------------------|-------------------------|
|----------------------|-------------------------|
|----2-----2---2-----2-|---2---2-2-2-2-2-2-2-2-2-|
|--3-----3---3---3-----|-3---3-------------------|
|----------------------|-------------------------|
|
|  Q     Q   Q   Q       Q   Q   H
|----------------------|-------------------------|
|----------------------|-------------------------|
|--0---------0---------|-3---2---0---------------|
|--------0-------0-----|-------------------------|


   E S S E E Q   S S E    Q    E  E E E Q
|-14-7-7-7-9-7---7-7-9-|-10---12-10-9-7-5----|
|----------------------|---------------------|
|----------------------|---------------------|
|----------------------|---------------------|
|----------------------|---------------------|
|----------------------|---------------------|
|
|  E E   E E E E E   E    E E  E  E E E E E
|----------------------|---------------------|
|----------------------|---------------------|
|----------------------|---------------------|
|----2-----2---2-----2-|----2-----2---2---2--|
|--3-----3---3---3-----|--3----3----3---3----|
|----------------------|---------------------|
|
|  Q     Q   Q   Q        Q    Q    Q   Q
|----------------------|---------------------|
|----------------------|--0------------------|
|--2---------2---------|-------2----4--------|
|--------2-------2-----|----------------5----|


   E S S E E Q   S S E    Q    E  E H
|-14-7-7-7-9-7---7-7-9-|-10---12-10-9---------------|
|----------------------|----------------------------|
|----------------------|----------------------------|
|----------------------|----------------------------|
|----------------------|----------------------------|
|----------------------|----------------------------|
|
|  E E   E E E E E   E    E E  E  E S S S S S S S S
|----------------------|----------------------------|
|----------------------|----------------------------|
|----------------------|----------------------------|
|----2-----2---2-----2-|----2-----2-2-2-2-2-2-2-2-2-|
|--3-----3---3---3-----|--3----3--------------------|
|----------------------|----------------------------|
|
|  Q     Q   Q   Q        Q    Q    H
|----------------------|----------------------------|
|----------------------|--0-------------------------|
|------------2---------|-------2----4---------------|
|--7-----2-------2-----|----------------------------|


   E S S E E Q   S S E    Q    E  E E E Q
|-14-7-7-7-9-7---7-7-9-|-10---12-10-9-7-5----|
|----------------------|---------------------|
|----------------------|---------------------|
|----------------------|---------------------|
|----------------------|---------------------|
|----------------------|---------------------|
|
|  E E   E E E E E   E    E E  E  E E E E E
|----------------------|---------------------|
|----------------------|---------------------|
|----------------------|---------------------|
|----2-----2---2-----2-|----2-----2---2---2--|
|--3-----3---3---3-----|--3----3----3---3----|
|----------------------|---------------------|
|
|  Q     Q   Q   Q        Q    Q    Q   Q
|----------------------|---------------------|
|----------------------|--0------------------|
|--2---------2---------|-------2----4--------|
|--------2-------2-----|----------------5----|


   E S S E E Q   S S E    E E E E H
|-14-7-7-7-9-7---7-7-9-|-10-7-9-5-7---------------|
|----------------------|--------------------------|
|----------------------|--------------------------|
|----------------------|--------------------------|
|----------------------|--------------------------|
|----------------------|--------------------------|
|
|  E E   E E E E E   E    E E E E S S S S S S S S
|----------------------|--------------------------|
|----------------------|--------------------------|
|----------------------|--------------------------|
|----2-----2---2-----2-|----2---2-2-2-2-2-2-2-2-2-|
|--3-----3---3---3-----|--3---3-------------------|
|----------------------|--------------------------|
|
|  Q     Q   Q   Q        Q   Q   H
|----------------------|--------------------------|
|----------------------|--0-----------------------|
|------------2---------|------4---2---------------|
|--7-----2-------2-----|--------------------------|


      |---3---|
   E  S  S    S  E  E    Q      E  E
|-12-19-17---19-17-14---15-----12-14----|
|---------------------------------------|
|---------------------------------------|
|---------------------------------------|
|---------------------------------------|
|---------------------------------------|
|
|  E  S    S     E  S S  E S S  E  S S
|---------------------------------------|
|---------------------------------------|
|---------------------------------------|
|--2------------------------------------|
|---------------------------------------|
|--3--3----3-----3--3-3--3-3-3--3--3-3--|
|
|  W
|---------------------------------------|
|---------------------------------------|
|---------------------------------------|
|---------------------------------------|


               |--3--|                 |---3---|
   E E   E E   S S   S E   Q        E  S  S    S  E  E    Q      E  E
|-12-5---5-7---5-7---5-3---0-----|-12-19-17---19-17-14---15-----12-14---|
|--------------------------------|--------------------------------------|
|--------------------------------|--------------------------------------|
|--------------------------------|--------------------------------------|
|--------------------------------|--------------------------------------|
|--------------------------------|--------------------------------------|
|
|  E S S E S S S   S   S S S S E    E  S    S     E  S S  E S S  E  S S
|--------------------------------|--------------------------------------|
|--------------------------------|--------------------------------------|
|--------------------------------|--------------------------------------|
|--------------------------------|--------------------------------------|
|--------------------------------|--------------------------------------|
|--3-3-3-3-3-3-3---3---3-3-3-3-3-|--3--3----3-----3--3-3--3-3-3--3--3-3-|


               |--3--|                 |---3---|
   E E   E E   S S   S E   Q        E  S  S    S  E  E    Q      E  E
|-12-5---5-7---5-7---5-3---3-----|-12-19-17---19-17-14---15-----12-14---|
|--------------------------------|--------------------------------------|
|--------------------------------|--------------------------------------|
|--------------------------------|--------------------------------------|
|--------------------------------|--------------------------------------|
|--------------------------------|--------------------------------------|
|
|  E S S E S S S   S   S S S S E    E  S    S     E  S S  E S S  E  S S
|--------------------------------|--------------------------------------|
|--------------------------------|--------------------------------------|
|--------------------------------|--------------------------------------|
|--------------------------------|--------------------------------------|
|--------------------------------|--------------------------------------|
|--3-3-3-3-3-3-3---3---3-3-3-3-3-|--3--3----3-----3--3-3--3-3-3--3--3-3-|


               |--3--|                 |---3---|
   E E   E E   S S   S E   Q        E  S  S    S  E  E    Q      E  E
|-12-5---5-7---5-7---5-3---0-----|-12-19-17---19-17-14---15-----12-14---|
|--------------------------------|--------------------------------------|
|--------------------------------|--------------------------------------|
|--------------------------------|--------------------------------------|
|--------------------------------|--------------------------------------|
|--------------------------------|--------------------------------------|
|
|  E S S E S S S   S   S S S S E    E  S    S     E  S S  E S S  E  S S
|--------------------------------|--------------------------------------|
|--------------------------------|--------------------------------------|
|--------------------------------|--------------------------------------|
|--------------------------------|--------------------------------------|
|--------------------------------|--------------------------------------|
|--3-3-3-3-3-3-3---3---3-3-3-3-3-|--3--3----3-----3--3-3--3-3-3--3--3-3-|


               |--3--|                 |---3---|
   E E   E E   S S   S E   Q        E  S  S    S  E  E    Q      E  E
|-12-5---5-7---5-7---5-3---3-----|-12-19-17---19-17-14---15-----12-14---|
|--------------------------------|--------------------------------------|
|--------------------------------|--------------------------------------|
|--------------------------------|--------------------------------------|
|--------------------------------|--------------------------------------|
|--------------------------------|--------------------------------------|
|
|  E S S E S S S   S   S S S S E    E  S    S     E  S S  E S S  E  S S
|--------------------------------|--------------------------------------|
|--------------------------------|--------------------------------------|
|--------------------------------|--------------------------------------|
|--------------------------------|--------------------------------------|
|--------------------------------|--------------------------------------|
|--3-3-3-3-3-3-3---3---3-3-3-3-3-|--3--3----3-----3--3-3--3-3-3--3--3-3-|


  Q      E E   E   E   Q        E S S E E   Q     S S E
|-8-----10-8---7---5---3-----|-12-5-5-5-7---5-----5-5-7----|
|----------------------------|-----------------------------|
|----------------------------|-----------------------------|
|----------------------------|-----------------------------|
|----------------------------|-----------------------------|
|----------------------------|-----------------------------|
|
| E S S  E S S S S S S S S E    E S S E S S E S S E   S S
|----------------------------|-----------------------------|
|----------------------------|-----------------------------|
|----------------------------|-----------------------------|
|----------------------------|-----------------------------|
|----------------------------|-----------------------------|
|-3-3-3--3-3-3-3-3-3-3-3-3-3-|--3-3-3-3-3-3-3-3-3-3---3-3--|


  Q      E E   H                E S S E E   Q     S S E
|-8-----10-8---7-------------|-12-5-5-5-7---5-----5-5-7----|
|----------------------------|-----------------------------|
|----------------------------|-----------------------------|
|----------------------------|-----------------------------|
|----------------------------|-----------------------------|
|----------------------------|-----------------------------|
|
| E S S  E S S S S S S S S E    E S S E S S E S S E   S S
|----------------------------|-----------------------------|
|----------------------------|-----------------------------|
|----------------------------|-----------------------------|
|----------------------------|-----------------------------|
|----------------------------|-----------------------------|
|-3-3-3--3-3-3-3-3-3-3-3-3-3-|--3-3-3-3-3-3-3-3-3-3---3-3--|


  Q      E E   E   E   Q        E S S E E   Q     S S E
|-8-----10-8---7---5---3-----|-12-5-5-5-7---5-----5-5-7----|
|----------------------------|-----------------------------|
|----------------------------|-----------------------------|
|----------------------------|-----------------------------|
|----------------------------|-----------------------------|
|----------------------------|-----------------------------|
|
| E S S  E S S S S S S S S E    E S S E S S E S S E   S S
|----------------------------|-----------------------------|
|----------------------------|-----------------------------|
|----------------------------|-----------------------------|
|----------------------------|-----------------------------|
|----------------------------|-----------------------------|
|-3-3-3--3-3-3-3-3-3-3-3-3-3-|--3-3-3-3-3-3-3-3-3-3---3-3--|


  E E   E E   H                E S S E E   Q     S S E
|-8-5---7-3---5-------------|-12-5-5-5-7---5-----5-5-7----|
|---------------------------|-----------------------------|
|---------------------------|-----------------------------|
|---------------------------|-----------------------------|
|---------------------------|-----------------------------|
|---------------------------|-----------------------------|
|
| E S S E S S S S S S S S E    E S S E S S E S S E   S S
|---------------------------|-----------------------------|
|---------------------------|-----------------------------|
|---------------------------|-----------------------------|
|---------------------------|-----------------------------|
|---------------------------|--3-----3-----3-----3--------|
|-3-3-3-3-3-3-3-3-3-3-3-3-3-|--3-3-3-3-3-3-3-3-3-3---3-3--|


  Q      E E   E   E   Q        E S S E E   Q     S S E
|-8-----10-8---7---5---3-----|-12-5-5-5-7---5-----5-5-7----|
|----------------------------|-----------------------------|
|----------------------------|-----------------------------|
|----------------------------|-----------------------------|
|----------------------------|-----------------------------|
|----------------------------|-----------------------------|
|
| E S S  E S S S S S S S S E    E S S E S S E S S E   S S
|----------------------------|-----------------------------|
|----------------------------|-----------------------------|
|----------------------------|-----------------------------|
|----------------------------|-----------------------------|
|-3------3-----3-------3-----|--3-----3-----3-----3--------|
|-3-3-3--3-3-3-3-3-3-3-3-3-3-|--3-3-3-3-3-3-3-3-3-3---3-3--|


  Q      E E   H                E S S E E   Q     S S E
|-8-----10-8---7-------------|-12-5-5-5-7---5-----5-5-7----|
|----------------------------|-----------------------------|
|----------------------------|-----------------------------|
|----------------------------|-----------------------------|
|----------------------------|-----------------------------|
|----------------------------|-----------------------------|
|
| E S S  E S S S S S S S S E    E S S E S S E S S E   S S
|----------------------------|-----------------------------|
|----------------------------|-----------------------------|
|----------------------------|-----------------------------|
|----------------------------|-----------------------------|
|-3------3-----3-------3-----|--3-----3-----3-----3--------|
|-3-3-3--3-3-3-3-3-3-3-3-3-3-|--3-3-3-3-3-3-3-3-3-3---3-3--|


  Q      E E   E   E   Q        E S S E E   Q     S S E
|-8-----10-8---7---5---3-----|-12-5-5-5-7---5-----5-5-7----|
|----------------------------|-----------------------------|
|----------------------------|-----------------------------|
|----------------------------|-----------------------------|
|----------------------------|-----------------------------|
|----------------------------|-----------------------------|
|
| E S S  E S S S S S S S S E    E S S E S S E S S E   S S
|----------------------------|-----------------------------|
|----------------------------|-----------------------------|
|----------------------------|-----------------------------|
|----------------------------|-----------------------------|
|-3------3-----3-------3-----|--3-----3-----3-----3--------|
|-3-3-3--3-3-3-3-3-3-3-3-3-3-|--3-3-3-3-3-3-3-3-3-3---3-3--|


  E E   E E   H                E S S E E   Q     S S E
|-8-5---7-3---5-------------|-12-5-5-5-7---5-----5-5-7----|
|---------------------------|-----------------------------|
|---------------------------|-----------------------------|
|---------------------------|-----------------------------|
|---------------------------|-----------------------------|
|---------------------------|-----------------------------|
|
| E S S E S S S S S S S S E    E S S E S S E S S E   S S
|---------------------------|-----------------------------|
|---------------------------|-----------------------------|
|---------------------------|-----------------------------|
|---------------------------|-----------------------------|
|-3-----3-----3-------3-----|--3-----3-----3-----3--------|
|-3-3-3-3-3-3-3-3-3-3-3-3-3-|--3-3-3-3-3-3-3-3-3-3---3-3--|
|
| Gtr III
| W                            Q     Q     Q     Q
|---------------------------|-----------------------------|
|---------------------------|-----------------------------|
|---------------------------|--0-----------0--------------|
|---------------------------|--------0-----------0--------|


  Q      E E   E   E   Q        E S S E E   Q     S S E
|-8-----10-8---7---5---3-----|-12-5-5-5-7---5-----5-5-7----|
|----------------------------|-----------------------------|
|----------------------------|-----------------------------|
|----------------------------|-----------------------------|
|----------------------------|-----------------------------|
|----------------------------|-----------------------------|
|
| E S S  E S S S S S S S S E    E S S E S S E S S E   S S
|----------------------------|-----------------------------|
|----------------------------|-----------------------------|
|----------------------------|-----------------------------|
|----------------------------|-----------------------------|
|-3------3-----3-------3-----|--3-----3-----3-----3--------|
|-3-3-3--3-3-3-3-3-3-3-3-3-3-|--3-3-3-3-3-3-3-3-3-3---3-3--|
|
| Q      Q     Q       Q        Q     Q     Q     Q
|----------------------------|-----------------------------|
|----------------------------|-----------------------------|
|-3------0-----2-------------|--0-----------0--------------|
|----------------------3-----|--------0-----------0--------|


  Q      E E   H                E S S E E   Q     S S E
|-8-----10-8---7-------------|-12-5-5-5-7---5-----5-5-7----|
|----------------------------|-----------------------------|
|----------------------------|-----------------------------|
|----------------------------|-----------------------------|
|----------------------------|-----------------------------|
|----------------------------|-----------------------------|
|
| E S S  E S S S S S S S S E    E S S E S S E S S E   S S
|----------------------------|-----------------------------|
|----------------------------|-----------------------------|
|----------------------------|-----------------------------|
|----------------------------|-----------------------------|
|-3------3-----3-------3-----|--3-----3-----3-----3--------|
|-3-3-3--3-3-3-3-3-3-3-3-3-3-|--3-3-3-3-3-3-3-3-3-3---3-3--|
|
| Q      Q     H                Q     Q     Q     Q
|----------------------------|-----------------------------|
|----------------------------|-----------------------------|
|-3------0-----2-------------|--0-----------0--------------|
|----------------------------|--------0-----------0--------|


  Q      E E   E   E   Q        E S S E E   Q     S S E
|-8-----10-8---7---5---3-----|-12-5-5-5-7---5-----5-5-7----|
|----------------------------|-----------------------------|
|----------------------------|-----------------------------|
|----------------------------|-----------------------------|
|----------------------------|-----------------------------|
|----------------------------|-----------------------------|
|
| E S S  E S S S S S S S S E    E S S E S S E S S E   S S
|----------------------------|-----------------------------|
|----------------------------|-----------------------------|
|----------------------------|-----------------------------|
|----------------------------|-----------------------------|
|-3------3-----3-------3-----|--3-----3-----3-----3--------|
|-3-3-3--3-3-3-3-3-3-3-3-3-3-|--3-3-3-3-3-3-3-3-3-3---3-3--|
|
| Q      Q     Q       Q        Q     Q     Q     Q
|----------------------------|-----------------------------|
|----------------------------|-----------------------------|
|-3------0-----2-------------|--0-----------0--------------|
|----------------------3-----|--------0-----------0--------|


  E E   E E   H                E S S E E Q     S S E   Q      E E E E   Q
|-8-5---7-3---5-------------|-12-5-5-5-7-5-----5-5-7-|-8-----10-8-7-5---3----|
|---------------------------|------------------------|-----------------------|
|---------------------------|------------------------|-----------------------|
|---------------------------|------------------------|-----------------------|
|---------------------------|------------------------|-----------------------|
|---------------------------|------------------------|-----------------------|
|
| E S S E S S S S S S S S E    E S S E E E S S E   E   E S S  E E E S S E E
|---------------------------|------------------------|-----------------------|
|---------------------------|------------------------|-----------------------|
|---------------------------|------------------------|-----------------------|
|---------------------------|----2-2---2---2-2-----2-|---2-2----2---2-2---2--|
|-3-----3-----3-------3-----|--3-----3---3-----3-----|-3------3---3-----3----|
|-3-3-3-3-3-3-3-3-3-3-3-3-3-|------------------------|-----------------------|
|
| Q     Q     H                Q     Q   Q     Q       Q      Q   Q     Q
|---------------------------|------------------------|-----------------------|
|---------------------------|------------------------|-----------------------|
|-3-----2-----0-------------|--0---------0-----------|-3------0---2----------|
|---------------------------|--------0---------0-----|------------------3----|


   E S S E E Q     S S E   Q      E E H            E S S E E   Q     S S E
|-12-5-5-5-7-5-----5-5-7-|-8-----10-8-7---------|-12-5-5-5-7---5-----5-5-7----|
|------------------------|----------------------|-----------------------------|
|------------------------|----------------------|-----------------------------|
|------------------------|----------------------|-----------------------------|
|------------------------|----------------------|-----------------------------|
|------------------------|----------------------|-----------------------------|
|
|  E S S E E E S S E   E   E S S  E E E S S E E    E S S E S S E S S E   S S
|------------------------|----------------------|-----------------------------|
|------------------------|----------------------|-----------------------------|
|------------------------|----------------------|-----------------------------|
|----2-2---2---2-2-----2-|---2-2----2---2-2---2-|----2-2---2-2---2-2-----2-2--|
|--3-----3---3-----3-----|-3------3---3-----3---|--3-----3-----3-----3--------|
|------------------------|----------------------|-----------------------------|
|
|  Q     Q   Q     Q       Q      Q   H            Q     Q     Q     Q
|------------------------|----------------------|-----------------------------|
|------------------------|----------------------|-----------------------------|
|--0---------0-----------|-3------0---2---------|--0-----------0--------------|
|--------0---------0-----|----------------------|--------0-----------0--------|


  Q      E E   E E   Q        E S S E E   Q     S S E
|-8-----10-8---7-5---3-----|-12-5-5-5-7---5-----5-5-7---|
|--------------------------|----------------------------|
|--------------------------|----------------------------|
|--------------------------|----------------------------|
|--------------------------|----------------------------|
|--------------------------|----------------------------|
|
| E S S  E S S E S S E S S    E S S E S S E S S E   S S
|--------------------------|----------------------------|
|--------------------------|----------------------------|
|--------------------------|----------------------------|
|---2-2----2-2---2-2---2-2-|----2-2---2-2---2-2-----2-2-|
|-3------3-----3-----3-----|--3-----3-----3-----3-------|
|--------------------------|----------------------------|
|
| Q      Q     Q     Q        Q     Q     Q     Q
|--------------------------|----------------------------|
|--------------------------|----------------------------|
|-3------0-----2-----------|--0-----------0-------------|
|--------------------3-----|--------0-----------0-------|


  E E   E E   H                  E S S E E   Q     S S E
|-8-5---7-3---5---------------|-12-5-5-5-7---5-----5-5-7---|
|-----------------------------|----------------------------|
|-----------------------------|----------------------------|
|-----------------------------|----------------------------|
|-----------------------------|----------------------------|
|-----------------------------|----------------------------|
|
| E S S E S S S S S S S S S S    E S S E S S E S S E   S S
|-----------------------------|----------------------------|
|-----------------------------|----------------------------|
|-----------------------------|----------------------------|
|---2-2---2-2-2-2-2-2-2-2-2-2-|----2-2---2-2---2-2-----2-2-|
|-3-----3---------------------|--3-----3-----3-----3-------|
|-----------------------------|----------------------------|
|
| Q     Q     H                  Q     Q     Q     Q
|-----------------------------|----------------------------|
|-----------------------------|----------------------------|
|-3-----2-----0---------------|--0-----------0-------------|
|-----------------------------|--------0-----------0-------|


  Q      E E   E E   Q        E S S E E   Q     S S E
|-8-----10-8---7-5---3-----|-12-5-5-5-7---5-----5-5-7---|
|--------------------------|----------------------------|
|--------------------------|----------------------------|
|--------------------------|----------------------------|
|--------------------------|----------------------------|
|--------------------------|----------------------------|
|
| E S S  E S S E S S E S S    E S S E S S E S S E   S S
|--------------------------|----------------------------|
|--------------------------|----------------------------|
|--------------------------|----------------------------|
|---2-2----2-2---2-2---2-2-|----2-2---2-2---2-2-----2-2-|
|-3------3-----3-----3-----|--3-----3-----3-----3-------|
|--------------------------|----------------------------|
|
| Q      Q     Q     Q        Q     Q     Q     Q
|--------------------------|----------------------------|
|--------------------------|----------------------------|
|-3------0-----2-----------|--0-----------0-------------|
|--------------------3-----|--------0-----------0-------|


  Q      E E   H                  E S S E E   Q     S S E
|-8-----10-8---7---------------|-12-5-5-5-7---5-----5-5-7---|
|------------------------------|----------------------------|
|------------------------------|----------------------------|
|------------------------------|----------------------------|
|------------------------------|----------------------------|
|------------------------------|----------------------------|
|
| E S S  E S S S S S S S S S S    E S S E S S E S S E   S S
|------------------------------|----------------------------|
|------------------------------|----------------------------|
|------------------------------|----------------------------|
|---2-2----2-2---2-2-2-2-2-2-2-|----2-2---2-2---2-2-----2-2-|
|-3------3-----3---------------|--3-----3-----3-----3-------|
|------------------------------|----------------------------|
|
| Q      Q     H                  Q     Q     Q     Q
|------------------------------|----------------------------|
|------------------------------|----------------------------|
|-3------0-----2---------------|--0-----------0-------------|
|------------------------------|--------0-----------0-------|


  Q      E E   E E   Q        E S S E E   Q     S S E
|-8-----10-8---7-5---3-----|-12-5-5-5-7---5-----5-5-7---|
|--------------------------|----------------------------|
|--------------------------|----------------------------|
|--------------------------|----------------------------|
|--------------------------|----------------------------|
|--------------------------|----------------------------|
|
| E S S  E S S E S S E S S    E S S E S S E S S E   S S
|--------------------------|----------------------------|
|--------------------------|----------------------------|
|--------------------------|----------------------------|
|---2-2----2-2---2-2---2-2-|----2-2---2-2---2-2-----2-2-|
|-3------3-----3-----3-----|--3-----3-----3-----3-------|
|--------------------------|----------------------------|
|
| Q      Q     Q     Q        Q     Q     Q     Q
|--------------------------|----------------------------|
|--------------------------|----------------------------|
|-3------0-----2-----------|--0-----------0-------------|
|--------------------3-----|--------0-----------0-------|


  E E   E E   H
|-8-5---7-3---5---------------|
|-----------------------------|
|-----------------------------|
|-----------------------------|
|-----------------------------|
|-----------------------------|
|
| E S S E S S S S S S S S S S
|-----------------------------|
|-----------------------------|
|-----------------------------|
|---2-2---2-2---2-2-2-2-2-2-2-|
|-3-----3-----3---------------|
|-----------------------------|
|
| Q     Q     H
|-----------------------------|
|-----------------------------|
|-3-----2-----0---------------|
|-----------------------------|


      |--3--|                             |-3-|
   E  S  S  S  E  E  Q    E  E    E E E E S S S E Q
|-12-19-17-19-17-14-15---12-14-|-12-5-5-7-5-7-5-3-0----|
|------------------------------|-----------------------|
|------------------------------|-----------------------|
|------------------------------|-----------------------|
|------------------------------|-----------------------|
|------------------------------|-----------------------|
|
|  E  E        E  E  E E  E  E    E E E E E     E E E
|------------------------------|-----------------------|
|------------------------------|-----------------------|
|-----3-----------3----3-----3-|----3---3-------3---3--|
|--2---------------------------|-----------------------|
|--------------3-----3----3----|--3---3---3-------3----|
|--3---------------------------|-----------------------|
|
|  Q           Q     Q    Q       Q   Q   Q       Q
|------------------------------|-----------------------|
|------------------------------|-----------------------|
|--0-----------------0---------|--3---0---2------------|
|--------------0----------0----|------------------3----|


      |--3--|                             |-3-|
   E  S  S  S  E  E  Q    E  E    E E E E S S S E Q
|-12-19-17-19-17-14-15---12-14-|-12-5-5-7-5-7-5-3-3---|
|------------------------------|----------------------|
|------------------------------|----------------------|
|------------------------------|----------------------|
|------------------------------|----------------------|
|------------------------------|----------------------|
|
|  E  E        E  E  E E  E  E    E E E E E     E E E
|------------------------------|----------------------|
|------------------------------|----------------------|
|-----3-----------3----3-----3-|----3---3-------3---3-|
|------------------------------|----------------------|
|--3-----------3-----3----3----|--3---3---3-------3---|
|------------------------------|----------------------|
|
|  Q           Q     Q    Q       Q   Q   H
|------------------------------|----------------------|
|------------------------------|----------------------|
|--0-----------------0---------|--3---0---2-----------|
|--------------0----------0----|----------------------|


      |--3--|                             |-3-|
   E  S  S  S  E  E  Q    E  E    E E E E S S S E Q
|-12-19-17-19-17-14-15---12-14-|-12-5-5-7-5-7-5-3-0----|
|------------------------------|-----------------------|
|------------------------------|-----------------------|
|------------------------------|-----------------------|
|------------------------------|-----------------------|
|------------------------------|-----------------------|
|
|  E  E        E  E  E E  E  E    E E E E E     E E E
|------------------------------|-----------------------|
|------------------------------|-----------------------|
|-----3-----------3----3-----3-|----3---3-------3---3--|
|------------------------------|-----------------------|
|--3-----------3-----3----3----|--3---3---3-------3----|
|------------------------------|-----------------------|
|
|  Q           Q     Q    Q       Q   Q   Q       Q
|------------------------------|-----------------------|
|------------------------------|-----------------------|
|--0-----------------0---------|--3---0---2------------|
|--------------0----------0----|------------------3----|


      |--3--|                               |--3--|
   E  S  S  S  E  E  Q   E   E      E E E E S S   S E   Q
|-12-19-17-19-17-14-15--12--14---|-12-5-5-7-5-7---5-3---3-------|
|--------------------------------|------------------------------|
|--------------------------------|------------------------------|
|--------------------------------|------------------------------|
|--------------------------------|------------------------------|
|--------------------------------|------------------------------|
|
|  Q           Q     Q   E.    S    E E E E S   S   S S S S S S
|--------------------------------|------------------------------|
|--------------------------------|------------------------------|
|--------------------------------|------------------------------|
|------------------------------2-|--2-----2-2---2---2-2-2-2-2-2-|
|--3-----------3-----3---3-------|----3-3-----------------------|
|--------------------------------|------------------------------|
|
|  Q           Q     Q   Q          Q   Q   H
|--------------------------------|------------------------------|
|--------------------------------|------------------------------|
|--0-----------------0-----------|--3---2---0-------------------|
|--------------0---------0-------|------------------------------|


   E S S E E Q   S S E   Q    E E E E Q
|-12-5-5-5-7-5---5-5-7-|-8---10-8-7-5-3----|
|----------------------|-------------------|
|----------------------|-------------------|
|----------------------|-------------------|
|----------------------|-------------------|
|----------------------|-------------------|
|
|  E E   E E E E E   E   E E  E E E E E E
|----------------------|-------------------|
|----------------------|-------------------|
|----------------------|-------------------|
|----2-----2---2-----2-|---2----2---2---2--|
|--3-----3---3---3-----|-3----3---3---3----|
|----------------------|-------------------|
|
|  Q     Q   Q   Q       Q    Q   Q   Q
|----------------------|-------------------|
|----------------------|-------------------|
|--0---------0---------|-3----0---2--------|
|--------0-------0-----|--------------3----|


   E S S E E Q   S S E   Q    E E H
|-12-5-5-5-7-5---5-5-7-|-8---10-8-7---------------|
|----------------------|--------------------------|
|----------------------|--------------------------|
|----------------------|--------------------------|
|----------------------|--------------------------|
|----------------------|--------------------------|
|
|  E E   E E E E E   E   E E  E E S S S S S S S S
|----------------------|--------------------------|
|----------------------|--------------------------|
|----------------------|--------------------------|
|----2-----2---2-----2-|---2----2-2-2-2-2-2-2-2-2-|
|--3-----3---3---3-----|-3----3-------------------|
|----------------------|--------------------------|
|
|  Q     Q   Q   Q       Q    Q   H
|----------------------|--------------------------|
|----------------------|--------------------------|
|--0---------0---------|-3----0---2---------------|
|--------0-------0-----|--------------------------|


   E S S E E Q   S S E   Q    E E E E Q
|-12-5-5-5-7-5---5-5-7-|-8---10-8-7-5-3----|
|----------------------|-------------------|
|----------------------|-------------------|
|----------------------|-------------------|
|----------------------|-------------------|
|----------------------|-------------------|
|
|  E E   E E E E E   E   E E  E E E E E E
|----------------------|-------------------|
|----------------------|-------------------|
|----------------------|-------------------|
|----2-----2---2-----2-|---2----2---2---2--|
|--3-----3---3---3-----|-3----3---3---3----|
|----------------------|-------------------|
|
|  Q     Q   Q   Q       Q    Q   Q   Q
|----------------------|-------------------|
|----------------------|-------------------|
|--0---------0---------|-3----0---2--------|
|--------0-------0-----|--------------3----|


   E S S E E Q   S S E   E E E E H
|-12-5-5-5-7-5---5-5-7-|-8-5-7-3-5---------------|
|----------------------|-------------------------|
|----------------------|-------------------------|
|----------------------|-------------------------|
|----------------------|-------------------------|
|----------------------|-------------------------|
|
|  E E   E E E E E   E   E E E E S S S S S S S S
|----------------------|-------------------------|
|----------------------|-------------------------|
|----------------------|-------------------------|
|----2-----2---2-----2-|---2---2-2-2-2-2-2-2-2-2-|
|--3-----3---3---3-----|-3---3-------------------|
|----------------------|-------------------------|
|
|  Q     Q   Q   Q       Q   Q   H
|----------------------|-------------------------|
|----------------------|-------------------------|
|--0---------0---------|-3---2---0---------------|
|--------0-------0-----|-------------------------|


   E S S E E Q   S S E   Q    E E E E Q
|-12-5-5-5-7-5---5-5-7-|-8---10-8-7-5-3----|
|----------------------|-------------------|
|----------------------|-------------------|
|----------------------|-------------------|
|----------------------|-------------------|
|----------------------|-------------------|
|
|  E E   E E E E E   E   E E  E E E E E E
|----------------------|-------------------|
|----------------------|-------------------|
|----------------------|-------------------|
|----2-----2---2-----2-|---2----2---2---2--|
|--3-----3---3---3-----|-3----3---3---3----|
|----------------------|-------------------|
|
|  Q     Q   Q   Q       Q    Q   Q   Q
|----------------------|-------------------|
|----------------------|-------------------|
|--0---------0---------|-3----0---2--------|
|--------0-------0-----|--------------3----|


   E S S E E Q   S S E   Q    E E H
|-12-5-5-5-7-5---5-5-7-|-8---10-8-7---------------|
|----------------------|--------------------------|
|----------------------|--------------------------|
|----------------------|--------------------------|
|----------------------|--------------------------|
|----------------------|--------------------------|
|
|  E E   E E E E E   E   E E  E E S S S S S S S S
|----------------------|--------------------------|
|----------------------|--------------------------|
|----------------------|--------------------------|
|----2-----2---2-----2-|---2----2-2-2-2-2-2-2-2-2-|
|--3-----3---3---3-----|-3----3-------------------|
|----------------------|--------------------------|
|
|  Q     Q   Q   Q       Q    Q   H
|----------------------|--------------------------|
|----------------------|--------------------------|
|--0---------0---------|-3----0---2---------------|
|--------0-------0-----|--------------------------|


   E S S E E Q   S S E   Q    E E E E Q
|-12-5-5-5-7-5---5-5-7-|-8---10-8-7-5-3----|
|----------------------|-------------------|
|----------------------|-------------------|
|----------------------|-------------------|
|----------------------|-------------------|
|----------------------|-------------------|
|
|  E E   E E E E E   E   E E  E E E E E E
|----------------------|-------------------|
|----------------------|-------------------|
|----------------------|-------------------|
|----2-----2---2-----2-|---2----2---2---2--|
|--3-----3---3---3-----|-3----3---3---3----|
|----------------------|-------------------|
|
|  Q     Q   Q   Q       Q    Q   Q   Q
|----------------------|-------------------|
|----------------------|-------------------|
|--0---------0---------|-3----0---2--------|
|--------0-------0-----|--------------3----|


   E S S E E Q   S S E   E E E E H                  E S S E E Q   S S E
|-12-5-5-5-7-5---5-5-7-|-8-5-7-3-5---------------|-12-5-5-5-7-5---5-5-7--|
|----------------------|-------------------------|-----------------------|
|----------------------|-------------------------|-----------------------|
|----------------------|-------------------------|-----------------------|
|----------------------|-------------------------|-----------------------|
|----------------------|-------------------------|-----------------------|
|
|  E E   E E E E E   E   E E E E S S S S S S S S    E E   E E E E E   E
|----------------------|-------------------------|-----------------------|
|----------------------|-------------------------|-----------------------|
|----------------------|-------------------------|-----------------------|
|----2-----2---2-----2-|---2---2-2-2-2-2-2-2-2-2-|----2-----2---2-----2--|
|--3-----3---3---3-----|-3---3-------------------|--3-----3---3---3------|
|----------------------|-------------------------|-----------------------|
|
|  Q     Q   Q   Q       Q   Q   H                  Q     Q   Q   Q
|----------------------|-------------------------|-----------------------|
|----------------------|-------------------------|-----------------------|
|--0---------0---------|-3---2---0---------------|--0---------0----------|
|--------0-------0-----|-------------------------|--------0-------0------|


  E E E E H                  E S S E E Q   S S E   W
|-8-5-7-3-5---------------|-12-5-5-5-7-5---5-5-7-|-8---------------|
|-------------------------|----------------------|-----------------|
|-------------------------|----------------------|-----------------|
|-------------------------|----------------------|-----------------|
|-------------------------|----------------------|-----------------|
|-------------------------|----------------------|-----------------|
|
| E E E E S S S S S S S S    E E   E E E E E   E   E E E E E E E E
|-------------------------|----------------------|-----------------|
|-------------------------|----------------------|-----------------|
|-------------------------|----------------------|-----------------|
|---2---2-2-2-2-2-2-2-2-2-|----2-----2---2-----2-|---2---2---2---2-|
|-3---3-------------------|--3-----3---3---3-----|-3---3---3---3---|
|-------------------------|----------------------|-----------------|
|
| Q   Q   H                  Q     Q   Q   Q       W
|-------------------------|----------------------|-----------------|
|-------------------------|----------------------|-----------------|
|-3---2---0---------------|--0---------0---------|-3---------------|
|-------------------------|--------0-------0-----|-----------------|


  W
|-7-------------------------|
|---------------------------|
|---------------------------|
|---------------------------|
|---------------------------|
|---------------------------|
|
| E E E E  S  S S S S S S S
|---------------------------|
|---------------------------|
|---------------------------|
|---2---2--2--2-2-2-2-2-2-2-|
|-3---3---------------------|
|---------------------------|
|
| Q   Q   +H
|---------------------------|
|---------------------------|
|-2---2---(2)---------------|
|---------------------------|


      |--3--|                               |-3--|
   E  S  S  S  E  E  Q     E  E    E E E E  S  S S E Q
|-12-19-17-19-17-14-15----12-14-|-12-5-5-7--5--7-5-3-0----|
|-------------------------------|-------------------------|
|-------------------------------|-------------------------|
|-------------------------------|-------------------------|
|-------------------------------|-------------------------|
|-------------------------------|-------------------------|
|
|  E  E        E  E  E  E  E  E    E E E E  E      E E E
|-------------------------------|-------------------------|
|-------------------------------|-------------------------|
|-------------------------------|-------------------------|
|-----2-----------2-----2-----2-|----2---2---------2---2--|
|--3-----------3-----3-----3----|--3---3----3--------3----|
|-------------------------------|-------------------------|
|
|  Q           Q    +H             Q   Q   +H
|-------------------------------|-------------------------|
|-------------------------------|-------------------------|
|--0-----------0----(0)---------|--0---0---(0)------------|
|-------------------------------|-------------------------|


  +W                          Q  Q  H
|-(0)-----------------------|-0----------*|
|---------------------------|------------*|
|---------------------------|------------*|
|---------------------------|------------*|
|---------------------------|------------*|
|---------------------------|------------*|
|
|  E  E E E S S S S S S S S   Q  Q  H
|---------------------------|------------*|
|---------------------------|-2----------*|
|---------------------------|------------*|
|-----2---2-2-2-2-2-2-2-2-2-|------------*|
|--3----3-------------------|------------*|
|---------------------------|------------*|
|
|  W                          Q  Q  H
|---------------------------|------------*|
|---------------------------|------------*|
|--0------------------------|-0----------*|
|---------------------------|------------*|



Duration Legend
---------------
W - whole; H - half; Q - quarter; E - 8th; S - 16th; T - 32nd; X - 64th; a - acciaccatura
+ - note tied to previous; . - note dotted; .. - note double dotted
Uncapitalized letters represent notes that are staccato (1/2 duration)
Irregular groupings are notated above the duration line
Duration letters will always appear directly above the note/fret number it represents the
duration for.  Duration letters with no fret number below them represent rests.  Multi-
bar rests are notated in the form Wxn, where n is the number of bars to rest for.  Low
melody durations appear below the staff

Tablature Legend
----------------
 h   - hammer-on
 p   - pull-off
 b   - bend
 pb  - pre-bend
 r   - bend release (if no number after the r, then release immediately)
 /\  - slide into or out of (from/to "nowhere")
 s   - legato slide
 S   - shift slide
 - natural harmonic
[n]  - artificial harmonic
n(n) - tapped harmonic
 ~   - vibrato
 tr  - trill
 T   - tap
 TP  - trem. picking
 PM  - palm muting
\n/  - tremolo bar dip; n = amount to dip
 \n  - tremolo bar down
 n/  - tremolo bar up
/n\  - tremolo bar inverted dip
 =   - hold bend; also acts as connecting device for hammers/pulls
 <> - volume swell (louder/softer)
 x   - on rhythm slash represents muted slash
 o   - on rhythm slash represents single note slash

Misc Legend
-----------
 |  - bar
||  - double bar
||o - repeat start
o|| - repeat end
*|  - double bar (ending)
 :  - bar (freetime)
 $  - Segno
 &  - Coda
Tempo markers -  = BPM(8/16=s8/s16), where s8 = swing 8ths, s16 = swing 16ths


            
            
Suggest correction
Creating personal tab
Creating personal tab
You can edit any tab online and save it as your Personal.

You can edit, replace or remove any tab part or add personal notes – all changes will be seen only by you.

Personal tabs can be accessed anytime from any device, even offline.
Learn more »
Give kudos to tab author, rate the tab!
1 2 3 4 5
comments
print report bad tab
1 comment total.
0 reply
boycew02 253 Apr 04, 2009 04:09 PM

Good tab but it's bloody hard to read.

guest
You may want to rate the tab now too:
select rating
Wanna post a correction for this tab? Suggest correction